Hemispheres: Armageddon By: Rush
========================================
q e q e q e q e q e q e q e e e e q e q e q e
+--------------------+---------------+----------------------+
|12:-----------------|9:-------------|12:-------------------|
| 8:-2-2---------5-4-|8:-2-2---------| 8:-5-4-5---------8-7-|
+--------2-2-3-3-----+-------2-2-3-3-+----------5-5-6-6-----+
q e q e q e e e e q e q e q e q e q e q e q e q e q e q e e e e
+-------------------+-----------------+---------------+----------------------+
|-------------------|-----------------|9:-------------|12:-------------------|
|-5-5---------5-7-8-|-2-2---------5-4-|8:-2-2---------| 8:-5-5---------5-7-8-|
+-----5-5-6-6-------+-----2-2-3-3-----+-------2-2-3-3-+--------5-5-6-6-------+
q e q e e e e e e e H q q q H q q q H q q e e q q e e e e e e q
+---------------------+---------+---------+-----------+-------------------+
|---------------5-6-7-|---7-----|---------|-----------|-----------------R-|
|-5-5-----5-7-8-------|-----7---|---7-----|-----------|---------------5---|
+-----5-5-------------+-5-----7-+-8---8-3-+-1-3-3-1-3-+-5-5-5-5-3-3-3-----+
q e q e q e q e q e q e q e e e e q e q e q e q e q e e e e e e e
+-----------------+---------------+----------------------+---------------------+
|-----------------|9:-------------|12:-------------------|-----------------5-7-|
|-2-2---------5-4-|8:-2-2---------| 8:-5-4-5---------8-7-|-5-5-----6-8-7-8-----|
+-----2-2-3-3-----+-------2-2-3-3-+----------5-5-6-6-----+-----5-5-------------+
q e q e q e q e q e q e q e q e q e q e e e e q e q e e e e e e e
+-----------------+---------------+----------------------+---------------------+
|-----------------|9:-------------|12:-------------------|---------------5-6-7-|
|-2-2---------5-4-|8:-2-2---------| 8:-5-5---------5-7-8-|-5-5-----5-7-8-------|
+-----2-2-3-3-----+-------2-2-3-3-+--------5-5-6-6-------+-----5-5-------------+
H q q q H q q q H q e e e e q e e e e e e e e q q e q e q e q e
+---------+---------+-------------+---------------------+-----------------+
|---7-----|---------|-------------|-------------------R-|-----------------|
|-----7---|---7-----|-------------|-----------------5---|-2-2---------5-4-|
+-5-----7-+-8---8-3-+-1-3-3-3-1-3-+-5-5-5-5-5-3-3-3-----+-----2-2-3-3-----+
q e q e q e e e e q e q e q e e e e q e q e q e q e
+-------------------+-------------------+-----------------+
|-------------------|-------------------|-----------------|
|-2-2---------5-4-4-|-2-2---------5-5-4-|-5-5---------8-7-|
+-----2-2-3-3-------+-----2-2-3-3-------+-----5-5-6-6-----+
q e q e e e e e e e H Q q e H Q q e H e q Q H e e e e q
+---------------------+---------+---------+---------+-------------+
|---------------5-6-7-|---7---7-|---------|---------|-----------R-|
|-5-5-----5-7-7-------|-----7---|---7-----|---------|-------------|
+-----5-5-------------+-5-------+-8---8-3-+-1-3-3-3-+-5-3-3-3-3---+
q e Q q e e e e q e Q q e e e e q e Q q e e e e q q q q h
+-----------------+-----------------+-----------------+-----4-----+
|-----R-----------|-----R-----------|-----R-----2-3-4-|---4-----R-|
|-----------2-3-4-|-----------2-3-4-|-2-2---2-2-------|-2-----2---|
+-2-2---2-2-------+-2-2---2-2-------+-----------------+-----------+
q e q e q e q e q e q e q e q e q e q e q e e e e q e q e q e q e
+-----------------+-----------------+-------------------+-----------------+
|-----------------|-----------------|-------------------|-----------------|
|-2-2---------5-4-|-2-2---------5-4-|-2-2---------5-5-4-|-5-5---------8-7-|
+-----2-2-3-3-----+-----2-2-3-3-----+-----2-2-3-3-------+-----5-5-6-6-----+
q e q e e e e e e e H q e e e e H q e e e e H e q Q H e e e e q
+---------------------+-------------+-------------+---------+-------------+
|---------------5-6-7-|---7---7-----|-------------|---------|-----------R-|
|-5-5-----5-7-8-------|-----7---7---|---7---7-----|---------|-------------|
+-----5-5-------------+-5---------7-+-8---8---8-3-+-1-3-3-3-+-5-3-3-3-3---+
q e Q q e e e e q e Q q e e e e q e Q q e e e e q e e e e q e e e e
+-----------------+-----------------+-----------------+---------------4-3-4-+
|-----R-----------|-----R-----------|-----R-----2-3-4-|-----4-3-4-----------|
|-----------2-3-4-|-----------2-3-4-|-2-2---2-2-------|-2-2-------2-2-------|
+-2-2---2-2-------+-2-2---2-2-------+-----------------+---------------------+
q e Q q e e e e q e e e e q e e e e q e Q q e e e e
+-----------------+---------------------+-----------------+
|-----R-----------|---------------------|-----R-----2-3-4-|
|-----------2-3-4-|-----2-3-4-----2-3-4-|-2-2---2-2-------|
+-2-2---2-2-------+-2-2-------2-2-------+-----------------+
e e Q e e e e e e e q e e e e q e e e e q e e e e q e e e e
+-4---2---------------+---------------------+---------------------+
|---4---4-5-7-6-4-----|---------------------|-4-4-4---4-2-2-4-2---|
|-----------------7-4-|-----2-3-4-----2-3-4-|-------4-----------4-|
+---------------------+-2-2-------2-2-------+---------------------+
q e e e e q e e e e q e e e e q e e e e q e e e e q e e e e
+---------------------+-4-4---4---2-2-4-2---+---------------------+
|-----2-3-4-----2-3-4-|-----4---4---------4-|---------------------|
|-2-2-------2-2-------|---------------------|-----2-3-4-----2-3-4-|
+---------------------+---------------------+-2-2-------2-2-------+
q e e e e e e e e e e q e e e e q e e e e q e e e e e e e e e e
+-----------------------+---------------------+-4-4-2---2-----4-------+
|-4-4-4---4-2---2-4-2---|-----2-3-4-----2-3-4-|-------4---6-7---7-6---|
|-------4-----4-------4-|-2-2-------2-2-------|---------------------7-|
+-----------------------+---------------------+-----------------------+
q e e e e q e e e e e e e e e e e e e e e e q q e e q q e e
+---------------------+-------------------------+-----------------+
|---------------------|-------------2-4-5-7-5---|-----------------|
|-----------2-2-2---2-|-4-2-4-5-4-5-----------7-|-5-5---5-7-7---7-|
+-5-5-5-3-5-------5---+-------------------------+-----5-------7---+
e e e e e e e e e e e e q e e e e q e e e e q e e e e q e e e e
+-------------------------+---------------------+---------------------+
|-------------------------|---------------------|-7-7-5-4---5-5-4-----|
|-7-9-9-9-7-7-7-5-5-5-4---|-----4-5-7-----4-5-7-|---------7-------7-6-|
+-----------------------7-+-5-5-------5-5-------+---------------------+
q e e e e q e e e e q e e e e e e e e e e q e e e e q e e e e
+---------------------+-7-7-5-4---------------+---------------------+
|-----4-5-7-----4-5-7-|---------7-5-4---------|---------------------|
|-5-5-------5-5-------|---------------7-5-4---|-------2-4-------2-4-|
+---------------------+---------------------7-+-2-2-5-----2-2-5-----+
e e q e e e e e e e e q e e e e q e e e e q e q e q e q e
+-----------------------+---------------------+-4-4-4-4-4-4-4-4-+
|-4---2-1---2---4---2---|-------2-3-------2-3-|-----------------|
|---4-----2---2---2---4-|-2-2-5-----2-2-5-----|-----------------|
+-----------------------+---------------------+-----------------+
q e e e e q e e e e q e e e e e e e e e e q e e e e q q e e
+---------------------+-----------------------+-------------------+
|-------7---7-7---7---|-------7-R-7-----------|-------------------|
|-----7---7-----7---7-|-----7-------------1-2-|-3-3-----2-3-3---2-|
+-5-5-----------------+-5-5---------5-5-5-----+-----3-5-------5---+
e e e e e e e e e e e e H H H e e e Q Q Q Q Q Q Q Q Q
+-------------------------+-----+-----------+---------+----------+
|-2-----3-2---2-----------|-----|-----------|---------|----------|
|---5-3-----3---5-3-2-----|-----|---------5-|-----2-3-|-5-6-9-10-|
+---------------------5-3-+-1-3-+-5-3-3-3---+-3-4-----+----------+
e+h e e+h e W +W +W
+--------------+---+----+----+
|------R-----R-|---|----|----|
|-10-----6-----|---|----|----|
+--------------+-8-+----+----+
==========================================================================
Created using the Bass Tab Creator
__ by Mario D'Alessio (motcid!marble!dalessio)
+|oo|+
+|oo|+ Notes: w = Whole h = Half q = Quarter
|| e = 8th s = 16th t = 32nd x = 64th
||
|| Capital durations are dotted notes
|| (equal to 1.5 times the duration value)
||
|| #
|| +----+ +----+
_ || _ |*--*+ = MEASURE |4:--| = TIME
_||_// |*--*+ REPEATS |4:--| SIGNATURES
| [] | +----+ (#=Num Repeats) +----+
| || |
/ [] + = TIE ^ = TRIPLET > = BEND
______/ H = HAMMER ON = SLIDE TO FRET R = Rest
P = PULL OFF X = SLIDE TO NOWHERE ~ = Trill




Ваше мнение



Капча