Received: from animal-farm.nevada.edu by redrock.nevada.edu (5.65c/M1.4)
with SMTP id ; Sun, 3 Oct 1993 17:44:26 -0700
Received: from ns2.CC.Lehigh.EDU by animal-farm.nevada.edu id ; Sun, 3 Oct 1993 17:44:24 -0700
Received: by ns2.CC.Lehigh.EDU id AA23580
(5.65c/IDA-1.4.4 for [email protected]); Sun, 3 Oct 1993 19:57:49 -0400
Message-Id:
Date: Sun, 03 Oct 1993 19:57:13 EDT
From: [email protected] (ROBERT LOUIS FOGLIA)
Subject: "Anthem" by Rush
To: [email protected]

Anthem
By: Rush
Intro Riff
h p p p h p p p h p p
|-------------------------------------------------------------------|
|.-----------------------------------------------------------------.|
|--------5--7-------------------------------------------------------|
|.-5--7--5--7-----2--0-2-0----------2--0-2-0----------2--0-2-0-----.|
|--5--7--3--5--------------2-0---------------2-0---------------2-0--|
|--3--5--------0---------------3-0---------------3-0----------------|
Riff A
|-----------------------------------------------------------------|
|.-9-9-9-9\-------------------9-9-9-9\------------------9-9-9-9\--|
|--9-9-9-9\-------------------9-9-9-9\------------------9-9-9-9\--|
|.-9-9-9-9\-------------------9-9-9-9\------------------9-9-9-9\--|
|-----------------------------------------------------------------|
|------------0-0--0---0-0-0-0-----------0-0--0--0-0-0-0-----------|
|-------------------------------|
|-----------------0--2----5--7-.|
|-----------------0--2----5--7--|
|-----------------0--2----5--7-.|
|-------------------------------|
|-0-0--0--0-0-0-0---------------|
Verse Riff
E C D E E7 E C D E
|-------------------------------0---3---5-----2------------|
|---0-----1-----3-------------0---1---1---3-----3----------|
|-----1-----0-----2---------1----------------------1-------|
|-2-----2-----4-----2--2-0------------------4------2--2-0--|
|(2)-------------------------------------------------------|
|(0)-------------------------------------------------------|
Chorus
G A C D E
|-3--------------------------------|
|-3----2---3-2--2-0---1--3---------|
|-0-----------------2-0--2---------|
|-0--2---2------------2--4--2--2-0-|
|-X--------------------------------|
|-3--------------------------------|
G A C D C D C D
|-3-------------------------------------------------------------------|
|-3----2---3-2--2-0-5--5-5-5-5-7--7--5--5-5-5-5-7--7--5--5-5-5-5-7--7-|
|-0-----------------5--5-5-5-5-7--7--5--5-5-5-5-7--7--5--5-5-5-5-7--7-|
|-0--2---2----------5--5-5-5-5-7--7--5--5-5-5-5-7--7--5--5-5-5-5-7--7-|
|-X-----------------3--3-3-3-3-5--5--3--3-3-3-3-5--5--3--3-3-3-3-5--5-|
|-3-------------------------------------------------------------------|
2ND Time
|-------------------3---2---------------------------------------------|
|-9-9---9-9---9-9---3---3---------------------------------------------|
|-9-9---9-9---9-9---0---3---------------------------------------------|
|-9-9---9-9---9-9---0---0---------------------------------------------|
|-7-7---7-7---7-7---X---0---------------------------------------------|
|-0-0---0-0---0-0---3-------------------------------------------------|
Solo over E and D
Key:
/ or \ slide
h hammer-on
p pull-off




Ваше мнение



Капча