From: [email protected]
Subject: Tab to Animate by Rush
Animate
As recorded on Counterparts.
Transcribed by Rowen S. Poole ([email protected])
Riff #1 1a
r r r
E ----------------------------------------------------------------------------
B ---------1-------------1-------------1-------------1-------------1----------
G -----2-0---2-------2-0---2----0--2-0---2----0--2-0---2-------2-0---2--------
D --0-------------0-----------------------------------------------------------
A ----------------------------------------------------------1-----------------
E ----------------------------------------------------------------------------
r r r
E -----------------------------------------
B ---------1-------------1-------------1---
G -----2-0---2-------2-0---2-------2-0---2-
D ------------------------------0----------
A --3-------------3------------------------
E -----------------------------------------
Riff #2 Riff #3
E ------------------------------|---------------------------------
B ------------------------------|---------------------------------
G ------------------------------|---------------------------------
D ------------------------5-5^7-|-5-5-5-5-5-5-5-5-5-5-5-5-5-5-5-5-
A --0-0-0-0-0-0-0-0-0-5-7-------|---------------------------------
E ------------------------------|---------------------------------
Riff #4
E ----------------------------------
B ----------------------------------
G ----------------------------------
D --0-0-0-0-0-0-0-0-0-0-0---0---0-0-
A ------------------------3---3-----
E ----------------------------------
Riff #5
Em G
E --0---------------------|--7------------------------------------------------
B --0---------------------|--8------------------------------------------------
G --0---------------------|--7------------------------------------------------
D --2---------------------|--0------------------------------------------------
A --2---------------------|--x------------------------------------------------
E --0---------------------|--x------------------------------------------------
Riff #6
Dm Fsus Bb C
E --5--5-5--5-5--5----8--8-8--8--8----6--6-6-6---8--8-8--8-8--8--
B --6--6-6--6-6--6----8--8-8--8--8----6--6-6-6---8--8-8--8-8--8--
G --7--7-7--7-7--7----10-1010-10-10---7--7-7-7---9--9-9--9-9--9--
D --7--7-7--7-7--7----10-1010-10-10---8--8-8-8---10-1010-1010-10-
A --5--5-5--5-5--5----8--8-8--8--8----8--8-8-8---10-1010-1010-10-
E --5--5-5--5-5--5----8--8-8--8--8----6--6-6-6---8--8-8--8-8--8--

Riff #1 twice
Riff #2 8 times *
Riff #3 once
Riff #2 twice
Riff #4 once
Riff #2 twice
Riff #1 once
Repeat this sequence once
replays 3-8
Repeat Riff #5 during solo section 8 times. Solo over Em and G using key of
G.
Then, repeat Riff #1 once then goto part 1a once
Final part of song (fade out) is Riff #6 over top of Riff#1
r = let this note ring
This is a rather easy song - except that it is played fast. I believe I
have gotten everything down here. I do not have my guitar with me while I am
writing this. This is all from memory. There may be a few more notes here
and there and the cords in riff #6 are probably played a few more times than
indicated but this should give you a real foundation to build on. Have fun!




Ваше мнение



Капча