Anagram (For Mongo) By: Rush
================================
q e e e e e e +e e e e e e e e e e e e e e e e +e e e e e e e e
+-----------------+------------------+-----------------+------------------+
|4:---------------|------------------|-----R---------3-|----3-3---3-2-----|
|4:-------------5-|----5-5-5-5-5-5---|-3-3---3-3-3-3---|--------3-----5-3-|
+---3-3-3-3-3-3---+----------------5-+-----------------+------------------+
q e e e e e e +e e e e e e e e e e e e e e e e +e e q e Q h h +w
+---------------+------------------+-----------------+------------+-----+----+
|---------------|------------------|-----------------|------------|---R-|----|
|-------------5-|----5-5-5-5-5-5---|-3-3-3-3-3-3-3---|------------|-----|----|
+-3-3-3-3-3-3---+----------------5-+---------------5-+----5-5-5-5-+-3---+----+
+w +w +w +w +w +H q e e q e e q e e q e e q e e e e e e q
+----+----+----+----+----+-------+-------------+-------------+---------------+
|----|----|----|----|----|-------|-----R-----R-|-----R-----R-|-------------R-|
|----|----|----|----|----|----12-|-------------|-------------|-6-6-6---6-6---|
+----+----+----+----+----+-------+-3-3---3-3---+-3-3---3-3---+-------6-------+
e e Q e e e e e e e e e q e e e e e e e e e e e e e e e e
+-------------+---------------+-----------------+-----------------+
|-----R-------|-----R-------R-|-----R-----------|-----R-------R---|
|-6-6---6-5-3-|---------------|-------------0-1-|-3-3-----3-----3-|
+-------------+-1-1---0-1-1---+-1-1---0-1-3-----+-------3---3-----+
e e e e e e e e e e e e e e e e e e e e e e e e q e e e e e e
+-----------------+-----------------+-----------------+---------------+
|-----7-----7-7-7-|-----R-------R---|-----R-----------|---------------|
|-5-5---5-5---5-5-|-----------------|-----------------|-3-3-3-3-3-3-3-|
+-----------------+-3-3---3-3-3---3-+-3-3---3-3-3-3-3-+---------------+
e e e e e e e e e e e q e e e e e e e e e e e e e e e e e e e
+-----------------+---------------+-----------------+-----------------+
|---------------0-|-2-2-2-2-2-2-2-|-2-2-2-2-2-2-2---|-----------------|
|-3-3-3-3-3-3-3---|---------------|---------------0-|-2-2-2-2-2-2-2-2-|
+-----------------+---------------+-----------------+-----------------+
e e e e e e e e q H +w +w +w e e e e e e e e e e e e e e e e
+-----------------+-----+----+----+----+-----------------+-----------------+
|-----------------|---R-|----|----|----|-----R-------R---|-----R-----------|
|-3-3-3-3---------|-----|----|----|----|-----------------|-----------------|
+---------1-1-1-1-+-3---+----+----+----+-1-1---1-1-1---1-+-1-1---1-1-1-1-0-+
e e e e e e e e e e e e e e e e e e e e e e e e e e e e e e e e
+-----------------+-----------------+-----------------+-----------------+
|-----R-------R---|-----R---R-------|-----R---R---R---|-R---R-----------|
|-3-3---3-3-3---3-|-5-5---5---5-5-5-|-----------------|-----------------|
+-----------------+-----------------+-3-3---3---3---3-+---3---3-3-3-3-3-+
e e e e e e e e e e e e e e e e q q e e e e +e e e e e e e e
+-----------------+-----------------+-------------+------------------+
|-----R-----R-----|-----------------|-------------|------------------|
|-6-6---5-5---3-3-|-3-1-1-1-0-0-1-3-|-------------|--------------0-1-|
+-----------------+-----------------+-1-1-1-1-1-1-+----1-1-1-1-3-----+
e e e e e e e e q e e e e e e e e e e e e e e e e e e e e e e
+-----------------+---------------+-----------------+-----------------+
|-----------------|---------------|-----R---R-------|-----------------|
|-3-3-3-3---3---3-|-5-5-5-5-5-5-5-|-----------------|-----------------|
+---------3---3---+---------------+-3-3---3---3-3-3-+-3-3-3-3-3-3-3-3-+
e e e e e e e e e e e e e e e e e e e e e e e e e q e e e e e
+-----------------+-----------------+-----------------+---------------+
|-----------------|---------------0-|-2-2-2-2-2-2-2-2-|-2-2-2-2-2-0-2-|
|-3-3-3-3-3-3-3-3-|-3-3-3-3-3-3-3---|-----------------|---------------|
+-----------------+-----------------+-----------------+---------------+
e e e e e e e e e e e e e e e e e e e e e e e e +e e e e e e e e
+-----------------+-----------------+-----------------+------------------+
|-----------------|-----------------|-----R---R-----R-|------R-----------|
|-2-2-2-2-2-2-0-2-|-3-3-3-3---------|-----------------|----------------2-|
+-----------------+---------1-1-1-1-+-3-3---3---3-3---+----3---3-3-3-3---+
q e e e e q e e e e e e e e e e e q e e e e e e e e e e e
+-------------+-----------------+---------------+-----------------+
|-------------|---------------0-|-2-2-2-2-2-2-2-|-2-2-2-2-2-2-0-2-|
|-3-3-3-3-3-3-|-3-3-3-3-3-3-3---|---------------|-----------------|
+-------------+-----------------+---------------+-----------------+
e e e e e e e e +e e e e e e e e q e e e e e e +Q e e e e e
+-----------------+------------------+---------------+--------------+
|-----------------|------------------|---------------|--------------|
|-2-2-2-2-2-0-2-3-|----3-3-3---------|---------2-3-5-|----5-5-5-5---|
+-----------------+----------1-1-1-1-+-3-3-3-3-------+------------5-+
q q e e e e +e e e e e e e e q q e e e e +e q e e e e e q q e e e e
+-------------+------------------+-------------+----------------+-------------+
|-----------3-|----3-3---3-2-----|-------------|----------------|-------------|
|-3-3-3-3-----|--------3-----5-3-|-----------5-|----5-5-5-7-5-7-|-3-3-3-3-3---|
+---------3---+------------------+-3-3-3-3-3---+----------------+-----------5-+
+Q e e e e e q e e e e e e e q q e e e q q e e e e +e e e e e e e e
+--------------+---------------+-------------+-------------+------------------+
|--------------|---------------|-------------|-----------3-|----3-3---3-2-----|
|------------2-|---------2-3-5-|-5-5-5-5-5---|-3-3-3-3-3---|--------3-----5-3-|
+----5-5-5-5---+-3-3-3-3-------+-----------5-+-------------+------------------+
q q e e e e +q e e e e e e q q e e e e +e e q e e e e q q e e e e
+-------------+----------------+-------------+----------------+-------------+
|-----------2-|----2-2-2-2-2-2-|-------------|--------R-------|-------------|
|-------------|----------------|-3-3-3-5-3---|----------------|-------------|
+-3-3-3-3-3---+----------------+-----------5-+----5-5---5-5-5-+-3-3-3-3-3-3-+
e e e e e e e e e e e e e e e e e e e e e e e e q e e e e e e
+-----------------+-----------------+-----------------+---------------+
|-R---------------|-----------------|-----------------|---------------|
|-----------------|-6-6-6-5-5-5-6-6-|-6-5-5-5-3-3-----|---------------|
+---3-3-3-3-3-3-3-+-----------------+-------------6-5-+-1-1-1-1-1-1-1-+
+e e e e e e e e q q e e e e q e e e e e e q e e e e e e
+------------------+-------------+---------------+---------------+
|------------------|-------------|---------------|---------------|
|----------------1-|-3-3---3---3-|-5-5-5-5-5-5-5-|---------------|
+----1-1-1-1-1-1---+-----3---3---+---------------+-3-3-3-3-3-3-3-+
e e e e e e e e e e e e e e e e e e e e e e e e e e Q e e e
+-----------------+-----------------+-----------------+-------------+
|-----------------|-----------------|-----------------|-------------|
|-----------------|-6-6-6-5-5-5-3-3-|-3-6-5-3-1-0-1-3-|-------------|
+-3-3-3-3-3-3-3-3-+-----------------+-----------------+-1-1-1-1-1-1-+
e e e e e e e e q e e e e e e e e e e e e e e q e e e e e e
+-----------------+---------------+-----------------+---------------+
|-R---R-----------|---------------|-----------------|---------------|
|-------------0-1-|-3-3-3---3---3-|-5-5-5---5---3-5-|---------------|
+---1---1-1-3-----+-------3---3---+-------5---5-----+-3-3-3-3-3-3-3-+
e e e e e e e e Q Q q +e Q E s e e e e e e e e e e e e e e e e e e
+-----------------+-------+--------------+-----------------+-----------------+
|-----------------|-1-1-1-|----1-1-1-1-1-|-2-2-2-2-2-2-2-2-|-2-2-2-2-2-2-0-2-|
|---------------1-|-------|--------------|-----------------|-----------------|
+-3-3-3-3-3-2-3---+-------+--------------+-----------------+-----------------+
Q Q e e e e e e e e e e q e e e e e e e e e e e e e e q e e q e e
+---------+-----------------+---------------+-----------------+-------------+
|---------|-----------------|---------------|-----------------|-------------|
|-2-2-2-2-|-3-3-3-3---------|---------------|---------------2-|-3-3-3-3-3-3-|
+---------+---------1-1-1-1-+-3-3-3-3-3-3-3-+-3-3-3-3-3-3-3---+-------------+
e e e e e e s E Q Q q +h q^q^q^ Q q q e +H q e e e e e e e e
+-----------------+-------+----------+---------+------+-----------------+
|-----------------|-------|----------|---------|------|-----------------|
|-3-3-3-3-3-3-3-3-|-------|----------|-3---3-5-|----5-|-----------2-3-5-|
+-----------------+-1-1-1-+----1-1-1-+---3-----+------+-3-3-3-3-3-------+
+e q q e e e q q e e e e +e e e e e e e e e e e e e e e e
+--------------+-------------+------------------+-----------------+
|--------------|-----------3-|----3-3---3-2-----|---------------2-|
|----5-5-5-5---|-3-3-3-3-3---|--------3-----5-3-|-----------------|
+------------5-+-------------+------------------+-3-3-3-3-3-3-3---+
+e q e e e e e e e e e e e e e s s s s s e s s s s s s s s s w +w
+----------------+-----------------+-------------------------------+---+----+
|----2-2-2-2-2-5-|-----------------|---5-------5-5-----------------|---|----|
|----------------|-3-3-3-3-3-5-3---|-----5-6-7-----5-7-5-3-2-0-2-0-|---|----|
+----------------+---------------5-+-5-----------------------------+-3-+----+
+w +w
+----+----+
|----|----|
|----|----|
+----+----+
==========================================================================
Created using the Bass Tab Creator
__ by Mario D'Alessio (motcid!marble!dalessio)
+|oo|+
+|oo|+ Notes: w = Whole h = Half q = Quarter
|| e = 8th s = 16th t = 32nd x = 64th
||
|| Capital durations are dotted notes
|| (equal to 1.5 times the duration value)
||
|| #
|| +----+ +----+
_ || _ |*--*+ = MEASURE |4:--| = TIME
_||_// |*--*+ REPEATS |4:--| SIGNATURES
| [] | +----+ (#=Num Repeats) +----+
| || |
/ [] + = TIE ^ = TRIPLET > = BEND
______/ H = HAMMER ON = SLIDE TO FRET R = Rest
P = PULL OFF X = SLIDE TO NOWHERE ~ = Trill




Ваше мнение



Капча