h - IV Presentation (10:16 - 13:55)
[Riff 1] - Freely
A D
e:------------5--5~---5-5-----------------------------------|
B:------------5--5~---5-5---7-7~-8--7--7--7.-8-----7~--7----|
G:------6-6~--6--6~---6-6---7-7~-7--7--7--7.-7-----7~--7----|
D:--7~--7-7~--7--7~---7-7---7-7~-7--7--7--7.-7--7--7~--7----|
A:--7~--7-7~--7--7~---7-7---5-5~-5--5--5--5.-5--5--5~--5----|
E:--5~--5-5~--5--5~---5-5-----------------------5-----------|
[Riff 2a] - Doubled by an acoustic guitar (electric is flanged)
A Bm/A D Amaj7 Bm/A E Bm A
e:-----------------|-----------------------------------------|
B:-2--3-3--7--5-5\-|--2--3-3---9--3--2-----------------------|
G:-2--4-4--7--6-6\-|--2--4-4---9--4--2-----------------------|
D:-2--4-4--7--6-6\-|--2--4-4---9--4--2-----------------------|
A:-0--0-0-----0-0--|--0--0-0---------0-----------------------|
E:-----------------|-----------------------------------------|
[Riff 2b] - Doubled by an acoustic guitar (electric is flanged)
A Bm/A D Amaj7 Bm/A E A
e:-----------------|-----------------------------------------|
B:-2--3-3--7--5-5\-|--2--3-3---9--14--14\--------------------|
G:-2--4-4--7--6-6\-|--2--4-4---9--14--14\--------------------|
D:-2--4-4--7--6-6\-|--2--4-4---9--14--14\--------------------|
A:-0--0-0-----0-0--|--0--0-0---------------------------------|
E:-----------------|-----------------------------------------|
[Riff 3] - Doubled by an acoustic guitar
A D E
e:--------------------------------------------------------------|
B:-2--2---2-2-3p2-------7--7h8--7----9--9--9h10--9--------------|
G:-2--------------2-----7--7----7----9--9--9-----9--------------|
D:-2----2---------------7--7h9--7----9--9--9h11--9--------------|
A:-0------------------------------------------------------------|
E:--------------------------------------------------------------|
[Riff 4]
Bm G A B
e:----------------------2-2-----3-3-----5-5-----|
B:----------------------3-3-----3-3-----5-5-----|
G:-------------------4--4-4-----4-4-----6-6-----|
D:-------------------4-------5-------7----------|
A:----------0--------2-------5-------7----------|
E:-0--2--3-----3--0----------3-------5-------7\-|
[Riff 5]
D5
e:----------------------|
B:------------------3~--|
G:------------------2~--|
D:------------------0~--|
A:-----------0----------|
E:--0--2--3-----3-0-----|
Progression:
[Riff 1] x2
[Riff 2a] x1 /w lyrics:
I know it's most unusual, to come before you so;
[Riff 2b] x1 /w lyrics:
But I've found an ancient miracle, I thought that you should know.
[Riff 3] x4 /w lyrics:
Listen to my music,
and hear what it can do.
There's something here as strong as life.
I know that it will reach you.
[Riff 1] x4 /w lyrics:
Yes we know, it's nothing new. It's just a waste of time.
We have no need for ancient ways. Our world is doing fine.
Another toy which helped destroy the elder race of man.
Forget about your silly whim, it doesn't fit the plan. No-how.
[Riff 2a] x1 /w lyrics:
I can't believe you're saying, these things just can't be true.
[Riff 2b] x1 /w lyrics:
Our world could use such beauty, just think what we might do.
[Riff 3] x4 /w lyrics:
Listen to my music,
and hear what it can do.
There's something here as strong as life.
I know that it will reach you.
[Riff 1] x4 /w lyrics:
Don't annoy us further, oh, we have our work to do.
Just think about the average. What use have they for you?
Another toy which helped destroy the elder race of man.
Forget about your silly whim, it doesn't fit the plan.
[Riff 4] x8 under [Guitar Solo] /w wah-wah and in the key of D
[Riff 5] x1




Ваше мнение



Капча