h - V Oracle: The Dream (13:56 - 16:00)
[Riff 1]
D C D F A
e:-------5~---5------3-3--2-2------3-3--5-5------3-3--0-0------------|
B:-----7--------7----5----3---3----5----6---6----5----2---2----------|
G:---7------------7--5----2-----2--5----5-----5--5----2-----2--------|
D:-7--------------------------------------------------2--------------|
A:----------------------------------------------------0--------------|
E:-------------------------------------------------------------------|
Thereafter Riff 1 goes like this:
e:--7-7--5-5----3-3--2-2----3-3--5-5---3-3--0--0---------|
B:--8----7--7---5----3--3---5----6--6--5----2---2--------|
G:--7----7---7--5----2---2--5----5---5-5----2----2-------|
D:------------------------------------------2------------|
A:------------------------------------------0------------|
E:-------------------------------------------------------|
[Riff 2] - Doubled by an acoustic guitar
G D C G D Dsus4 D C F C D A D A
e:-3--2--0--3--2~-3--2~----0--1--0--2--------------------|
B:-3--3--1--3--3~-3--3~----1--1--1--3---2~-3--2~---------|
G:-0--2--0--0--2~-2--2~----0--2--0--2---2~-2--2~---------|
D:-0--0--2--0--0~-0--0~----2--3--2--0---2~-4--2~---------|
A:-2-----3--2--------------3--3--3------0~-0--0~---------|
E:-3--------3-----------------1--------------------------|
** These are both doubled by an acoustic guitar
[Riff 3] D/C# [Riff 3a]
Bm G A D5 | A5 Bm C D A
e:--2~--3~-----------------|--0--2-----------------------|
B:--3~--3~--2~--3--3-------|--1--3--2--------------------|
G:--4~--0~--2~--2--2--2--4-|--0--2--2--------------------|
D:--4~--0~--2~--0--x--2--4-|--2--0--2--------------------|
A:--2~--2~--0~-----4--0--2-|--3-----0--------------------|
E:------3~-----------------|-----------------------------|
Progression:
[Riff 1] x2
[Riff 1] x2 /w lyrics:
I wandered home through silent streets, and fell into a fitful sleep.
Escape to realms beyond the night. Dream, can't you show me the light?
[Riff 2] x2 /w lyrics:
I stand atop a spiral stair; an oracle confronts me there.
He leads me on lightyears away, through astral nights, galactic days.
[Riff 3] x2 /w lyrics:
I see the work of gifted hands that grace the strange and wonderous land.
I see the hands of man arise with hungry mind and open eyes.
[Riff 3a] x1
[Riff 2] x1
[Riff 2] x2 /w lyrics:
They left our planets long ago. The elder race still learn and grow.
Their power grows with purpose strong to claim the home where they belong;
Segue:
Bm G E5/D E5
e:-2~------------------3~-------------0.-----0~----|
B:-3~------------------3~-------------0.-----0~----|
G:-4~------------------0~-------------x------x-----|
D:-4~------------------0~-------------0.-----2~----|
A:-2~------------------2~--------------------2~----|
E:---------------------3~--------------------0~----|
home to tear the Temples down, home to change....




Ваше мнение



Капча