#----------------------------------PLEASE NOTE--------------------------------#
#This file is the author's own work and represents their interpretation of the#
#song. You may only use this file for private study, scholarship, or research.#
#-----------------------------------------------------------------------------#
Rush - VII Grand Finale (18:19 - 20:32)
[Riff 1] - Freely (is there phaser here too?)
E5 D A5
e:------------------------------------------------------------|
B:----------------------8--7----------------------------------|
G:--9---9-9-9-9-9-9-----7--7-------7--------------------------|
D:--9---9-9-9-9-9-9-----7--7---7---7--------------------------|
A:--7---7-7-7-7-7-7-----5--5---7---5--------------------------|
E:--0---0-0-0-0-0-0------------5------------------------------|
[Riff 2]
E5 Esus2 Dsus2 Csus2
e:-0--0--0--0--0--0--0--0----------------------------7~--5~--3~-|
B:-0--0--0--0--0--0--0--0---7--7--7--7--7--7--7--7---7~--5~--3~-|
G:-9--9--9--9--9--9--9--9---7--7--7--7--7--7--7--7---9~--7~--5~-|
D:-9--9--9--9--9--9--9--9---7--7--7--7--7--7--7--7---9~--7~--5~-|
A:-7--7--7--7--7--7--7--7---5--5--5--5--5--5--5--5---7~--5~--3~-|
E:-0--0--0--0--0--0--0--0---------------------------------------|
[Riff 3] - Freely
B E D C
e:---------------------|-7--7-7-7--5--5-5-5--3-3-3-3-3-3---|
B:---------------------|-7--7-7-7--5--5-5-5--3-3-3-3-3-3---|
G:o-------------------o|-9--9-9-9--7--7-7-7--5-5-5-5-5-5---|
D:o--4---4---4----4---o|-9--9-9-9--7--7-7-7--5-5-5-5-5-5---|
A:---2-0-2-0-2--0-2----|-7--7-7-7--5--5-5-5--3-3-3-3-3-3---|
E:---------------------|-----------------------------------|
Progression:
[Riff 1] x12
[Riff 2] x1
Over [Riff 3] x8:
[Guitar Solo] with partially depressed wah-wah
B
e:------------------|------------------|------------------|
B:------------------|------------------|------------------|
G:------------------|------------------|------------------|
D:--4---4---4----4--|--4---4---4----4--|--4---4---4----4--|
A:--2-0-2-0-2--0-2--|--2-0-2-0-2--0-2--|--2-0-2-0-2--0-2--|
E:------------------|------------------|------------------|
F#5 G5 A5 B5 C5 D5 E5 G5 F#5 G5 A5 B5 B5
e:-----------------------------------------|------------------|
B:-----------------------------------------|------------------|
G:--------------5--7--9--12---------------|-----------4--5--7|
D:--4--5--7--9--5--7--9--12----4--5--7--9-|--4--5--7--4--5--7|
A:--4--5--7--9--3--5--7--10----4--5--7--9-|--4--5--7--2--3--5|
E:--2--3--5--7------------------2--3--5--7-|--2--3--5---------|
F#m
e:------------------|---2---2----2--2------|
B:------------------|---2---2----2--2------|
G:-----------4--5--7|o--2---2----2--2-----o|
D:--4--5--7--4--5--7|o--4---4----4--4-----o|
A:--4--5--7--2--3--5|---4---4----4--4------|
E:--2--3--5---------|---2---2----2--2------|
+ o o o +
Use pick slides, wah-wah, tremolo bar dives, and feedback.
Repeat: Attention all planets of the Solar Federation!
We have assumed control!
We have assumed control!
We have assumed control...




Ваше мнение



Капча