White Masque
by Running Wild
Taken from the album
Blazon Stone
Transcribed by Mikko Issakainen
[email protected]
I hope you'll understand my writings because I didn't want to write
everything in tab. Those chord parts and some simple riffs are marked
with '/'. They take much less space now but I hope it doesn't become
unreadable. Tempo is about 172... but it's not exact. Tune guitars
1 halfsteps down. I also used the 'fake' chord names, so you'll have
to bring them down one halfstep with normally tuned guitar.
All comments are welcome!
-------------------
H = Hammer on, P = Pull off, Ah = Artificial harmonic, -3- = triol
' = bend, F = Full
Figure1:
Gtr1:
D
/ (/)
Gtr2:
|---------------------------------|---------------------------------|
|---------------------------------|---------------------------------|
|-------------------------5-5-5-5-|---------------------------------|
|-0-0-0-0-7-7-7-7-3-3-3-3---------|-0-0-0-0-7-7-7-7-3-3-5-5-3-3-2-2-|
|---------------------------------|---------------------------------|
|---------------------------------|---------------------------------|
C
/ (/) /
|---------------------------------|---------------------------------|
|---------------------------------|---------------------------------|
|-------------------------5-5-5-5-|---------------------------------|
|-0-0-0-0-7-7-7-7-3-3-3-3---------|-0-0-0-0-7-7-7-7-0-0-5---3---2---|
|---------------------------------|---------------------------------|
|---------------------------------|---------------------------------|
(Gtr2 plays previous 4 bars again) End Figure1
| 1 2 3 4 | 1 2 3 4 | 1 2 3 4 | 1 2 3 4 |
| D F | D F C | D F | D C |
| / / | / /-/ | / / | / / |
Figure2:
During this figure Gtr1 is palm muted and it plays only singe notes;
for example D means the 5th fret from the 5th string.
D C D
/=/=/=/=/=/=/=/=/=/=/=/=/=/=/=/ /=/=/=/=/=/=/=/=/=/=/=/=/=/=/=/
1 2 3 4 1 2 3 4
||---------------------------------|---------------------------------|
||---------------------------------|---------------------------------|
||*--------------------------------|---------------------------------|
||*----------------7-7-7-7-7-7-7-7-|---------5-5-5-5-----------------|
||-5-5-5-5-5-5-5-5-----------------|-8-8-8-8---------5-5-5-5-5-5-5-5-|
||---------------------------------|---------------------------------|
F C Bb End Figure2
/=/=/=/=/=/=/=/=/=/=/=/=/=/=/=/ /=/=/=/=/=/=/=/=/=/=/=/=/=/=/=/
1 2 3 4 1 2 3 4
|---------------------------------|---------------------------------||
|---------------------------------|---------------------------------||
|---------------------------------|--------------------------------*||
|-----------------7-7-7-7-7-7-7-7-|-5-5-5-5------------------------*||
|-8-8-8-8-8-8-8-8-----------------|---------8-8-8-8-7-7-7-7-3-3-3-3-||
|---------------------------------|---------------------------------||
Cracking the whip, horses running fast
Verse riff:
Pm--------------------------------------------------------
1 2 3 4 1 2 3 4
|---------------------------------|---------------------------------|
|---------------------------------|---------------------------------|
|---------------------------------|-------------------------5-------|
|-------------------------5-5-----|-------------------------5-------|
|-5-5-5-5-8-8-5-5-5-5-5-5-----5-5-|-5-5-5-5-8-8-5-5-5-5-5-5-3-------|
|---------------------------------|---------------------------------|
The hard groaning wheels, The deep ruts they cast
Pm-------------------------------------------------------- End Verse riff
1 2 3 4 1 2 3 4
|---------------------------------|---------------------------------|
|---------------------------------|---------------------------------|
|---------------------------------|-------------------------5-------|
|---------5-5-------------5-5-7-7-|---------5-5---------5-5-5-------|
|-8-8-8-8-----8-8-8-8-8-8---------|-3-3-3-3-----3-3-3-3-----3-------|
|---------------------------------|---------------------------------|
???????
(Verse riff)
The coach is rushing Through the haze of the night
Darkness everywhere and no "White Masque" in sight
Figure3:
1 2 3 4 1 2 3 4
Pm-------------- Pm---------
|---------------------------------|---------------------------------|
|---------------------------------|---------------------------------|
|-----------------7---------------|-10------10--12--5---------------|
|-7-7-5-5---------7---------------|-10------10--12--5---------------|
|---------8-8-7-7-5---5-5-5-5-5-5-|-8-------8---10--3---------------|
|---------------------------------|---------------------------------|
|
| Pm------------- Pm---------
|---------------------------------|---------------------------------|
|---------------------------------|---------------------------------|
|-----------------7---------------|-10------10--12--5---------------|
|-3-3-2-2---------7---------------|-10------10--12--5---------------|
|---------5-5-3-3-5---5-5-5-5-5-5-|-8-------8---10--3---------------|
|---------------------------------|---------------------------------|
Gtr1: End Figure3
1 2 3 4 1 2 3 4
Pm-------------- Pm--------- Pm--
|---------------------------------|---------------------------------|
|---------------------------------|---------------------------------|
|-----------------7---------------|-7-------7---9---10------5-------|
|-7-7-5-5---------7---------------|-5---5-5-5---7---10------5-------|
|---------8-8-7-7-5---5-5-5-5-5-5-|-----------------8-------3-------|
|---------------------------------|---------------------------------|
|Gtr2:
| Pm------------- Pm--------- Pm--
|---------------------------------|---------------------------------|
|---------------------------------|---------------------------------|
|-----------------7---------------|-7-------7---9---10------5-------|
|-3-3-2-2---------7---------------|-5---5-5-5---7---10------5-------|
|---------5-5-3-3-5---5-5-5-5-5-5-|-----------------8-------3-------|
|---------------------------------|---------------------------------|
(Figure2)
(Verse riff twice)
Hard pounding wheels, mud's flying high
Deep panting, throats running dry
The shap biting chill id freezing their breaths
But the tottering coach is beating its path
BRIDGE:
(Figure2 twice)
Invincible blaze
White masked face
Depriving the scourge
Dreadful mirage
CHORUS:
1 2 3 4 1 2 3 4
|D F |C D Bb |
|/ / |/ / / |
Blazing the wrath with the union of the "White masque"
1 2 3 1 2 3 4
|D F |C Bb |
|/ / |/ / |
The lords and marquises they're just running scared
1 2 3 4 1 2 2 4
|D F |C D Bb |
|/ / |/ / / |
Mysterious force, phantoms of the dark night
1 2 3 4 1 2 3 4
|D F |C Bb |
|/ / |/ / |
Hunting the evil that hides in it's lair
Figure4: (w/Gtr2 from the Figure1)
1 2 3 4 1 2 3 4
Pm----- Pm--------- Pm----------- Pm---------
||---------------------------------|---------------------------------|
||---------------------------------|---------------------------------|
||*--------7---------------10------|---------7---------------7---5---|
||*--------7---------------10------|---------7---------------7---5---|
||-5-5-5-5-5---7-7-8-8-8-8-8---8-8-|-5-5-5-5-5---5-5-7-7-8-8-5---3---|
||---------------------------------|---------------------------------|
1 2 3 4 1 2 3 4
Pm----- Pm--------- Pm----------- Pm------------- End Figure4
|---------------------------------|---------------------------------||
|---------------------------------|---------------------------------||
|---------7---------------10------|---------7-------------------5--*||
|---------7---------------10------|---------7-------------------5--*||
|-5-5-5-5-5---7-7-8-8-8-8-8---8-8-|-5-5-5-5-5---5-5-5-5-5-5-5-5-3---||
|---------------------------------|---------------------------------||
(Verse riff twice)
A dark and caped silhouette's in the haze
A covered phenomenon with a mask on his face
Pistol and sword, the coach has to stop
The marquis knows well he'll lose what he's got
BRIDGE
CHORUS
(Figure1)
Solo:
Gtr1:
1 2 3 4 1 2 3 4
------3------
|-----------------------------------|---------------------------------|
|-13------------Slight--------------|---------------------------------|
|------10----12---Ah----------------|------10----12-------------------|
|-----------------12~~--------12-12-|-12--------------10~~------------|
|-----------------------------------|---------------------------------|
|-----------------------------------|---------------------------------|
|Gtr2:
|Solo figure1:
| Pm----- Pm- Pm----- Pm-
|-----------------------------------|---------------------------------|
|-----------------------------------|---------------------------------|
|---------7-------7-----------------|---------5-------5---------------|
|---------7-------7-----------------|---------5-------5---------------|
|-5-5-5-5-5---5-5-5-----------------|-3-3-3-3-3---3-3-3---------------|
|-----------------------------------|---------------------------------|
1 2 3 4 1 2 3 4
Ah------------------------------------
------3------ ------3------
|---------------------------------|---------------------------------|
|-10---------------------------P--|---------------------------------|
|------12----10--------10----12-10|---------------------------------|
|-----------------12--------------|-10-------------(10)~~~----------|
|---------------------------------|---------------------------------|
|---------------------------------|---------------------------------|
|
| Pm----- Pm- Pm- End Solo figure 1
|---------------------------------|---------------------------------|
|---------------------------------|---------------------------------|
|---------7-------7---------------|-10------10--12--10--------------|
|---------7-------7---------------|-10------10--12--10-------10-----|
|-5-5-5-5-5---5-5-5---------------|-8---8-8-8---10--8--------10-----|
|---------------------------------|--------------------------8------|
(w/Solo figure1)
1 2 . 3 . 4 .
-----3-----
|-------------------------------------------------|
|-------------------------10-10-10----------------|
|-------------10-10-12-12-------------10----12----|
|-12--12--12--------------------------------------|
|-------------------------------------------------|
|-------------------------------------------------|
1 2 3 4
-----3---- -----3----
|-------------------------------------------------|
|-10--10--10--11-11-10-10-------------------------|
|-------------------------12------12--10----12----|
|-------------------------------------------------|
|-------------------------------------------------|
|-------------------------------------------------|
1 2 3 4
-----3---- -----3----
|-------------------------------------------------|
|-------------------------10--10--10--------10-10-|
|-------------10-10-12-12-------------10-10-------|
|-12--12--12--------------------------------------|
|-------------------------------------------------|
|-------------------------------------------------|
1 2 3 4
-----3----
|-------------------------------------------------|
|-11--11--11--10-10-11-11-13-13-10-10-11-11-13-13-|
|-------------------------------------------------|
|-------------------------------------------------|
|-------------------------------------------------|
|-------------------------------------------------|
1 2 3 4 1 F__ 2 3 4
|-17-----(17)-----17--20------17--|-20'----`----17------------------|
|---------------------------------|-----------------17--------------|
|---------------------------------|---------------------------------|
|---------------------------------|---------------------------------|
|---------------------------------|---------------------------------|
|---------------------------------|---------------------------------|
|
| Pm----- Pm- Pm----- Pm-
|---------------------------------|---------------------------------|
|---------------------------------|---------------------------------|
|---------9-------9---------------|---------7-------7---------------|
|---------9-------9---------------|---------7-------7---------------|
|-7-7-7-7-7---7-7-7---------------|-5-5-5-5-5---5-5-5---------------|
|---------------------------------|---------------------------------|
1 2 3 4 1 2 3 4
------3------ ------3-----
|------15------------------------|---------------------------------|
|-17---------17---15---17---13---|-15-------------(15)~~~~---------|
|--------------------------------|---------------------------------|
|--------------------------------|---------------------------------|
|--------------------------------|---------------------------------|
|--------------------------------|---------------------------------|
|
| Pm----- Pm- Pm-
|--------------------------------|---------------------------------|
|--------------------------------|---------------------------------|
|---------9-------9--------------|-7-------7---9---7-------7-------|
|---------9-------9--------------|-5---5-5-5---7---5-------7-------|
|-7-7-7-7-7---7-7-7--------------|-------------------------5-------|
|--------------------------------|---------------------------------|
1 2 3 4 1 F__ 2 3 4
|-17-----(17)-----17--20------17--|-20'----`----17------------------|
|---------------------------------|-----------------17--------------|
|---------------------------------|---------------------------------|
|---------------------------------|---------------------------------|
|---------------------------------|---------------------------------|
|---------------------------------|---------------------------------|
|
| Pm----- Pm- Pm----- Pm-
|---------------------------------|---------------------------------|
|---------------------------------|---------------------------------|
|---------9-------9---------------|---------7-------7---------------|
|---------9-------9---------------|---------7-------7---------------|
|-7-7-7-7-7---7-7-7---------------|-5-5-5-5-5---5-5-5---------------|
|---------------------------------|---------------------------------|
1 2 3 4 1 2 3 4
------3----- ------3-----
|------15-----------------------|---------------------F_----------|
|-17--------17---15---17---13---|-15--------------15-'--`-----13--|
|-------------------------------|---------------------------------|
|-------------------------------|---------------------------------|
|-------------------------------|---------------------------------|
|-------------------------------|---------------------------------|
|
| Pm----- Pm- Pm-
|--------------------------------|---------------------------------|
|--------------------------------|---------------------------------|
|---------9-------9--------------|-7-------7---5---7-------7-------|
|---------9-------9--------------|-5---5-5-5---3---5-------7-------|
|-7-7-7-7-7---7-7-7--------------|-------------------------5-------|
|--------------------------------|---------------------------------|
Harmony figure: (w/Gtr1 from Figure2)
I'm not sure about this but it sounds ok...
1 2 3 4 1 2 3 4 1 2 3 4 1 2 3 4
|-5-3-1-0-1---1-3-|-5---5-6-3---0---|-5-3-1-0-1---1-3-|-6---6-8--5-------|
|-6-5-3-1-3---3-5-|-6---6-8-5---1---|-6-5-3-1-3---3-5-|-8---8-10-6-------|
|-----------------|-----------------|-----------------|------------------|
|-----------------|-----------------|-----------------|------------------|
|-----------------|-----------------|-----------------|------------------|
|-----------------|-----------------|-----------------|------------------|
(Harmony figure & Gtr1 from Figure2)
(Figure4)
(Verse1)
(Bridge & Chorus)
(Chorus 2 halfsteps higher)
(Figure4 2 halfsteps higher)
(Figure1 2 halfsteps higher)
Mikko Issakainen [email protected]





Ваше мнение



Капча