#----------------------------------PLEASE NOTE---------------------------------#
#This file is the author's own work and represents their interpretation of the #
#song. You may only use this file for private study, scholarship, or research. #
#------------------------------------------------------------------------------#
Welcom to Hell
by Running Wild
Taken from the album
The Brotherhood
VERSION 1.0
BASS TAB
Transcription by Miha Pildek Jakhel
contact: [email protected]
Riff 1:
-----------------------------------------------------------------------
-----------5-5-5--3---------3--5---------------5-5-5--3---------3------
-3-3-3--5------------5-5-5--------3--3-3-3--5------------5-5-5-----3---
-----------------------------------------------------------------------
-----------------------------------------------------------------------
-----------5-5-5--3---------3--5---------------5-5-5--3---------3------
-3-3-3--5------------5-5-5--------3--3-3-3--5------------5-5-5-----3---
-----------------------------------------------------------------------
Riff 2: 00:12
----------------------------------------------------------------------
---------------------------------------------------------------3------
-5-5-5-5-5-5-5-5-5-5-5-5-5-5-5-5-5-5-5-5-5-5-5-5-5-5-5-5-5-5-------3--
----------------------------------------------------------------------
----------------------------------------------------------------------
---------------------------------------------------------------3------
-5-5-5-5-5-5-5-5-5-5-5-5-5-5-5-5-5-5-5-5-5-5-5-5-5-5-5-5-5-5-------3--
----------------------------------------------------------------------
Riff 3: 00:24
-------------------------------------------------------------------------------
---------------------3-3--3-3--3-3---------------------------3-3--3-3----------
-5-5--5-5--5-5--5-5-----------------3-3---5-5--5-5--5-5--5-5----------1-3-5-3--
-------------------------------------------------------------------------------
-------------------------------------------------------------------------------
---------------------3-3--3-3--3-3---------------------------3-3--3-3----------
-5-5--5-5--5-5--5-5-----------------3-3---5-5--5-5--5-5--5-5----------1-3-5-3--
-------------------------------------------------------------------------------
Riff 2: 00:48
----------------------------------------------------------------------
---------------------------------------------------------------3------
-5-5-5-5-5-5-5-5-5-5-5-5-5-5-5-5-5-5-5-5-5-5-5-5-5-5-5-5-5-5-------3--
----------------------------------------------------------------------
----------------------------------------------------------------------
---------------------------------------------------------------3------
-5-5-5-5-5-5-5-5-5-5-5-5-5-5-5-5-5-5-5-5-5-5-5-5-5-5-5-5-5-5-------3--
----------------------------------------------------------------------
Riff 3: 1:00
-------------------------------------------------------------------------------
---------------------3-3--3-3--3-3---------------------------3-3--3-3----------
-5-5--5-5--5-5--5-5-----------------3-3---5-5--5-5--5-5--5-5----------1-3-5-3--
-------------------------------------------------------------------------------
Riff 4: 1:11
-------------------------------------------------------------------------------------
--------------------------------------------------------------------------3----------
-1-1-1-1-1-1-1-1-1-1-1-1-1-1-1-1-1-1-1-1-1-1-1-1-5-5-5-5-5-5-5-5-5-5-5-5----5-3-5-3--
-------------------------------------------------------------------------------------
-------------------------------------------------------------------------------------
----------------------------------------------------------------------------3---5----
-1-1-1-1-1-1-1-1-1-1-1-1-1-1-1-1-1-1-1-1-1-1-1-1-3-3-3-3-3-3-3-3-3-3-3-3-------------
-------------------------------------------------------------------------------------
Chorus: 1:23
Welcom! Welcom!
------------------------------------------------------------
-----------------------------------------------------3------
-5-5--5-5-5---5-5--5-5-5---1-1-1-1-1-1-1-1-1-1-1-1-------3--
------------------------------------------------------------
-------------------------------------------------------------------------
------------------------------------------------------------------3---5--
-5-5--5-5-5---5-5--5-5-5---1-1-1-1-1-1-1-1-1-1-1-1--3-3-3-3-3-3----------
-------------------------------------------------------------------------
Welcom! Welcom!
------------------------------------------------------------
-----------------------------------------------------3------
-5-5--5-5-5---5-5--5-5-5---1-1-1-1-1-1-1-1-1-1-1-1-------3--
------------------------------------------------------------
----------------------------------------------------------------------------------
------------------------------------------------------------------3---5-----------
-5-5--5-5-5---5-5--5-5-5---1-1-1-1-1-1-1-1-1-1-1-1--3-3-3-3-3-3-----------5----0--
----------------------------------------------------------------------------------
Riff 2: 1:50
----------------------------------------------------------------------
---------------------------------------------------------------3------
-5-5-5-5-5-5-5-5-5-5-5-5-5-5-5-5-5-5-5-5-5-5-5-5-5-5-5-5-5-5-------3--
----------------------------------------------------------------------
----------------------------------------------------------------------
---------------------------------------------------------------3------
-5-5-5-5-5-5-5-5-5-5-5-5-5-5-5-5-5-5-5-5-5-5-5-5-5-5-5-5-5-5-------3--
----------------------------------------------------------------------
Riff 3: 2:02
-------------------------------------------------------------------------------
---------------------3-3--3-3--3-3---------------------------3-3--3-3----------
-5-5--5-5--5-5--5-5-----------------3-3---5-5--5-5--5-5--5-5----------1-3-5-3--
-------------------------------------------------------------------------------
-------------------------------------------------------------------------------
---------------------3-3--3-3--3-3---------------------------3-3--3-3----------
-5-5--5-5--5-5--5-5-----------------3-3---5-5--5-5--5-5--5-5----------1-3-5-3--
-------------------------------------------------------------------------------
Riff 4: 2:25
-------------------------------------------------------------------------------------
--------------------------------------------------------------------------3----------
-1-1-1-1-1-1-1-1-1-1-1-1-1-1-1-1-1-1-1-1-1-1-1-1-5-5-5-5-5-5-5-5-5-5-5-5----5-3-5-3--
-------------------------------------------------------------------------------------
--------------------------------------------------------------------------------------
----------------------------------------------------------------------------3---5-----
-1-1-1-1-1-1-1-1-1-1-1-1-1-1-1-1-1-1-1-1-1-1-1-1-3-3-3-3-3-3-3-3-3-3-3-3-----------0--
--------------------------------------------------------------------------------------
Riff 2: 2:40 SOLO
----------------------------------------------------------------------
---------------------------------------------------------------3------
-5-5-5-5-5-5-5-5-5-5-5-5-5-5-5-5-5-5-5-5-5-5-5-5-5-5-5-5-5-5-------3--
----------------------------------------------------------------------
----------------------------------------------------------------------
---------------------------------------------------------------3------
-5-5-5-5-5-5-5-5-5-5-5-5-5-5-5-5-5-5-5-5-5-5-5-5-5-5-5-5-5-5-------3--
----------------------------------------------------------------------
Riff 5: 2:52
----------------------------------------------------------------------
----------------------------------------------------------------------
---------------------------------------------------------------3------
-5-5-5-5-5-5-5-5-5-5-5-5-5-5-5-5-5-5-5-5-5-5-5-5-5-5-5-5-5-5-------3--
----------------------------------------------------------------------
----------------------------------------------------------------------
---------------------------------------------------------------3------
-5-5-5-5-5-5-5-5-5-5-5-5-5-5-5-5-5-5-5-5-5-5-5-5-5-5-5-5-5-5-------3--
Riff 2: 3:04
----------------------------------------------------------------------
---------------------------------------------------------------3------
-5-5-5-5-5-5-5-5-5-5-5-5-5-5-5-5-5-5-5-5-5-5-5-5-5-5-5-5-5-5-------3--
----------------------------------------------------------------------
----------------------------------------------------------------------
---------------------------------------------------------------3------
-5-5-5-5-5-5-5-5-5-5-5-5-5-5-5-5-5-5-5-5-5-5-5-5-5-5-5-5-5-5-------3--
----------------------------------------------------------------------
Riff 3: 3:16
-------------------------------------------------------------------------------
---------------------3-3--3-3--3-3---------------------------3-3--3-3----------
-5-5--5-5--5-5--5-5-----------------3-3---5-5--5-5--5-5--5-5----------1-3-5-3--
-------------------------------------------------------------------------------
Riff 4: 3:28
-------------------------------------------------------------------------------------
--------------------------------------------------------------------------3----------
-1-1-1-1-1-1-1-1-1-1-1-1-1-1-1-1-1-1-1-1-1-1-1-1-5-5-5-5-5-5-5-5-5-5-5-5----5-3-5-3--
-------------------------------------------------------------------------------------
-------------------------------------------------------------------------------------
----------------------------------------------------------------------------3---5----
-1-1-1-1-1-1-1-1-1-1-1-1-1-1-1-1-1-1-1-1-1-1-1-1-3-3-3-3-3-3-3-3-3-3-3-3-------------
-------------------------------------------------------------------------------------
Chorus: 3:39
------------------------------------------------------------
-----------------------------------------------------3------
-5-5--5-5-5---5-5--5-5-5---1-1-1-1-1-1-1-1-1-1-1-1-------3--
------------------------------------------------------------
-------------------------------------------------------------------------
------------------------------------------------------------------3---5--
-5-5--5-5-5---5-5--5-5-5---1-1-1-1-1-1-1-1-1-1-1-1--3-3-3-3-3-3----------
-------------------------------------------------------------------------
------------------------------------------------------------
-----------------------------------------------------3------
-5-5--5-5-5---5-5--5-5-5---1-1-1-1-1-1-1-1-1-1-1-1-------3--
------------------------------------------------------------
----------------------------------------------------------------------------------
------------------------------------------------------------------3---5-----------
-5-5--5-5-5---5-5--5-5-5---1-1-1-1-1-1-1-1-1-1-1-1--3-3-3-3-3-3-----------5----0--
----------------------------------------------------------------------------------
Riff 2: 4:06
----------------------------------------------------------------------
---------------------------------------------------------------3------
-5-5-5-5-5-5-5-5-5-5-5-5-5-5-5-5-5-5-5-5-5-5-5-5-5-5-5-5-5-5-------3--
----------------------------------------------------------------------
----------------------------------------------------------------------
---------------------------------------------------------------3------
-5-5-5-5-5-5-5-5-5-5-5-5-5-5-5-5-5-5-5-5-5-5-5-5-5-5-5-5-5-5-------3--
----------------------------------------------------------------------

----------------------------------------------------------------------
---------------------------------------------------------------3------
-5-5-5-5-5-5-5-5-5-5-5-5-5-5-5-5-5-5-5-5-5-5-5-5-5-5-5-5-5-5-------3--
----------------------------------------------------------------------
---------------------------------------------------------------------------
---------------------------------------------------------------3-----------
-5-5-5-5-5-5-5-5-5-5-5-5-5-5-5-5-5-5-5-5-5-5-5-5-5-5-5-5-5-5-------3---5-5-
---------------------------------------------------------------------------





Ваше мнение



Капча