From [email protected] Fri Apr 4 17:03:23 1997
Date: Mon, 10 Mar 1997 17:20:07 +0100
From: [email protected]
To: [email protected]
Subject: NEW RUNNING WILD guitar tab
UNDERWORLD - By Running Wild, off MASQUERADE album
Tabbed by Ivan "JESTER" Jimenez
e-mail [email protected]
Riff 1:
B A B A B A F# G A
e|----------------------------------------------------------|
B|----------------------------------------------------------|
G|----------------------------------------------------------|
D|-9-9---77--9-9----7 7---9-7--4-4--5--7--------------------|
A|-9-9---77--9-9----7 7---9-7--4-4--5--7--------------------|
E|-7-7pm-55--7-7pm--5 5pm-7-5--2-2--3--5--------------------|
Fill 1 (played by Lead Guitar, on intro)
|---------------------------------------------------------|
|---------------------------------------------------------|
|---------------------------------------------------------|
|---------------------------------------------------------|
|---------------------------------------------------------|
|---------------------------------------------------------|
Riff 2 (play it with Verses, both guitars)
A B D B A B A B A
e|---------------------------------------------------------|
B|---------------------------------------------------------|
G|-2--4---4---4-7-4-4---4-2-4-4---4-4-2-----2--------------|
D|-2--4---4---4-7-4-4---4-2-4-4---4-4-2--5--2--------------|
A|-0--2pm-2pm-2-5-2-2pm-2-0-2-2pm-2-2-0--5--0--------------|
E|---------------------------------------3-----------------|
Riff 3 (play it with Bridge)
A B A G A G F# B D A B
e|---------------------------------------------------------|
B|---------------------------------------------------------|
G|--2--4--2--------------4---4--4--7--2--4-----------------|
D|--2--4--2--5--7--5--4--4---4--4--7--2--4-----------------|
A|--0--2--0--5--7--5--4--2pm-2--2--5--0--2-----------------|
E|-----------3--5--3--2------------------------------------|
Riff 4 (play it with Chorus)
B A B A G F#
e|---------------------------------------------------------|
B|---------------------------------------------------------|
G|-4--4---2---4---4----------------------------------------|
D|-4--4---2---4---4--7--5--4-------------------------------|
A|-2--2pm-0pm-2---2--7--5--4-------------------------------|
E|-------------------5--3--2-------------------------------|
Riff 5 (play it on Interlude, before the Solo)
B G A G F# B
e|----------------------------|
B|----------------------------|
G|--4--4-----2--------4-------|
D|--4--4--5--2--5--4--4-------|
A|--2--2--5--0--5--4--2-------|
E|--------3-----3--2----------|
Riff 6
e|--------------------------------------------------------------|
B|--------------------------------------------------------------|
G|--------------------------------------------------------------|
D|--------------------------------------------------------------|
A|--------------------------------------------------------------|
E|--------------------------------------------------------------|

Order of the Song:
Intro Riff 1 Fill 1
Verse 1 Riff 2 Fill 2 (semisolo)
Bridge Riff 3
Chorus Riff 4
Intro Riff 1 Fill 1
Verse 2 Riff 2
Bridge Riff 3
Chorus Riff 4
Interlude Riff 5 Fill 3
Solo Riff 2 S O L O
Riff 3 S O L O
Intro Riff 1
Verse 3 Riff 2
Bridge Riff 3
Chorus Riff 4
Chorus Riff 4 Slow
Break Riff 6
Fade End, and Let The Devil Speak

UnderWorld
Evil souls and blackest hearts, lurking in the night
A darkened race, so mean and sly, they keep away from light
Ancient words tell dreadful tales about the other side
About its world where demons live and where the evil hides
They invade the world with war and pain to save their evil aim
Their power's build on blackest lies, but man will pay its price
Underworld, the centre of the blackest heart
Underworld, where the evil side hides in the dark
They've ruled the world through history, the lords of war and crime
Military and government, they're brought into line
Men in black, they cover up the sight of U.F.O.'s
Their power's save as long as there is no one who knows!
They invade the world with war and pain to save their evil aim
Their power's build on blackest lies, but man will pay its price
Underworld, the centre of the blackest heart
Underworld, where the evil side hides in the dark
Churches built on holy spots its energy to ban
Exposing truth, who's the church? blackest kind of men
Religion's made to obscure the mind, living on its lies
Who's the one to wear its crown? the devil! no disguise!
They invade the world with war and pain to save their evil aim
Their power's build on blackest lies, but man will pay its price
Underworld, the centre of the blackest heart
Underworld, where the evil side hides in the dark
Underworld, where laws were made to hide the truth
Underworld, where evilness and darkness rules
You have eyes to see, nevertheless you see nothing!
You have a soul to feel, nevertheless you feel nothing!
You have a mind to know, nevertheless you know nothing!
That is the way we want you to be!!! HO HO HO ...





Ваше мнение



Капча