e: Fri, 27 Mar 1998 10:30:48 +0200
From: Henri Laine
Subject: r/running_wild/under_jolly_roger.tab
UNDER JOLLY ROGER
(Music and lyrics by Rolf Kasparek)
From the Album:
The First Years of Piracy
Transcribed by
Henri Laine
email:
[email protected]
Legend of Symbols:
m=palm mute ~=vibrato *=tremolo /=slide up
p=pull off h=hammer on \=slide down
(Update)
Intro (4x):
E|----------------------------------------------------------------|
B|----------------------------------------------------------------|
G|----------------------------------------------------------------|
D|----------------------------222---------------------------------|
A|444-222-000-----444-222-000-----444-222-000-----444-222-000-----|
E|------------222-----------------------------222-------------000-|
Riff 1:
Weigh anchor, hoist the sails...
m mmm m m mmm m m mmm m m mmm m m mmm m mmm mmm mmm
E|----------------------------------------------------------------|
B|----------------------------------------------------------------|
G|----------------------------------------4----6----------2---2---|
D|----------------------------------------4----6----4-----2---2---|
A|----------------------------------------2----4----4-----0---0---|
E|2-222-2-2-222-2-2-222-2-2-222-2-2-222-2---000--0002-000---------|
Cruisin' for booty on watery trails...
m mmm m m mmm m m mmm m m mmm m m mmm m mmm mmm mmm
E|----------------------------------------------------------------|
B|----------------------------------------------------------------|
G|----------------------------------------4----6----------2---2---|
D|----------------------------------------4----6----4-----2---2---|
A|----------------------------------------2----4----4-----0---0---|
E|2-222-2-2-222-2-2-222-2-2-222-2-2-222-2---000--0002-000---------|
Ro exploiter we see can still sail on...
m mmm m m mmm m m mmm m m mmm m m mmm m mmm mmm mmm
E|----------------------------------------------------------------|
B|----------------------------------------------------------------|
G|----------------------------------------4----6----------2---2---|
D|----------------------------------------4----6----4-----2---2---|
A|----------------------------------------2----4----4-----0---0---|
E|2-222-2-2-222-2-2-222-2-2-222-2-2-222-2---000--0002-000---------|
Our cannons fire till his ship goes down...
m mmm m m mmm m m mmm m m mmm m m mmm m mmm mmm mmm
E|----------------------------------------------------------------|
B|----------------------------------------------------------------|
G|----------------------------------------4----6----------2---2---|
D|----------------------------------------4----6----4-----2---2---|
A|----------------------------------------2----4----4-----0---0---|
E|2-222-2-2-222-2-2-222-2-2-222-2-2-222-2---000--0002-000---------|
Bridge:
Fly our flag, we teach them fear Capture them, the end is near...
mmmmmm mmmmmm mmmmmm mmmmmm mmmmmm mmmmmm mmmmmm mmmmmm
E|----------------------------------------------------------------|
B|----------------------------------------------------------------|
G|6-------6-------6-------6---------------------------------------|
D|6-------6-------6-------6-------2-------2-------4-------4-------|
A|4-4444444-4444444-4444444-4444442-------2-------4-------4-------|
E|--------------------------------0-0000000-0000002-2222222-222222|
Firing guns, they shall burn Surrender or fight, there's no return...
mmmmmm mmmmmm mmmmmm mmmmmm mmmmmm mmmmmm mmmmmm mmmmmm
E|----------------------------------------------------------------|
B|----------------------------------------------------------------|
G|6-------6-------6-------6---------------------------------------|
D|6-------6-------6-------6-------2-------2-------4-------4-------|
A|4-4444444-4444444-4444444-4444442-------2-------4-------4-------|
E|--------------------------------0-0000000-0000002-2222222-222222|
Chorus:
Un- der jol-ly ro- ger
E|----------------------------------------------------------------|
B|----------------------------------------------------------------|
G|------------------------2---------------------------------------|
D|4-------4-------2---4---2---4---2-------2-----------------------|
A|4-------4-------2---4---0---4---2-------2-------444-222-000-----|
E|2-------2-------0---2-------2---0-------0-------------------222-|
Un- der jol-ly ro- ger
E|----------------------------------------------------------------|
B|----------------------------------------------------------------|
G|------------------------2---------------------------------------|
D|4-------4-------2---4---2---4---2-------2-------------------222-|
A|4-------4-------2---4---0---4---2-------2-------444-222-000-----|
E|2-------2-------0---2-------2---0-------0-----------------------|
Riff 1:
Benerable scoundrels, no blood on our hands
Our engagements are tough, but only for defense
Carefully we sail around the reefs
We force those die-hards to their knees (Yeah!)
Bridge:
Fly our flag, we teach them fear...
Chorus:
Under jolly roger...
Riff 2 (2x) (Before the solo):
E|----------------------------------------------------------------|
B|------5---------------5---7---5-------5---------------4---4-4---|
G|6---6-4---6---4-6---6-4---6---4-6---6-4---6---4-6---6-3---3-3---|
D|6---6-2---6---4-6---6-2---4---2-6---6-2---6---4-6---6-1---2-1---|
A|4---4-----4---2-4---4-----------4---4-----4---2-4---4-----------|
E|----------------------------------------------------------------|
Riff 3 (With the solo):
mmmmmm mmmmmm mmmmmm mmmmmm mmmmmm mmmmmm mmmmmm
E|----------------------------------------------------------------|
B|-------------------------------------------------------------5--|
G|6-------6-------6-------6-------6-------6-------6------------4--|
D|6-------6-------6-------6-------6-------6-------6------------2--|
A|4-4444444-4444444-4444444-4444444-4444444-4444444-444444-4p2----|
E|----------------------------------------------------------------|
Solo:
E|--------16------19--16--19//21------19-17-16-17-16-14-16--------|
B|14--------------------------------------------------------------|
G|----------------------------------------------------------------|
D|----------------------------------------------------------------|
A|----------------------------------------------------------------|
E|----------------------------------------------------------------|
E|----------------------------------------------------------------|
B|-------------------12-------------------------------------------|
G|13--14-13----11-11-----14--13--11--13----13--14--11-13----11-13-|
D|-------------------------------------------------------14-------|
A|----------------------------------------------------------------|
E|----------------------------------------------------------------|
Fast solo: (Not so sure about this...)
E|----------------------------------------------------------------|
B|----------------------------------------------------------------|
G|---------------------------------------9h11----9h11----9h11-----|
D|9--11-11-11-11-11-9-11-11-11-11-11-9h11----9h11----9h11----9h11-|
A|----------------------------------------------------------------|
E|----------------------------------------------------------------|
E|----------------------------------------------------------------|
B|----9h12----9h12----9h12----9h12-----9h12-12-9------------------|
G|9h11----9h11----9h11----9h11----9h11-----------11-9-------------|
D|----------------------------------------------------11~~~~~~----|
A|----------------------------------------------------------------|
E|----------------------------------------------------------------|
E|----12p9h12p9h12p9----12p9h12p9h12p9----12p9h12p9h12p9|
B|9h12--------------9p12--------------9p12--------------|
G|------------------------------------------------------|
D|------------------------------------------------------|
A|------------------------------------------------------|
E|------------------------------------------------------|
* * * * * * * * * * * * * * * *
E|----12p9h12p9h12p9----12p9h12p9h12p9-12-9-----------------------------|
B|9h12--------------9p12-------------------12-9-12-9--------------------|
G|--------------------------------------------------11-9-11-9-------9---|
D|-----------------------------------------------------------11-9-11-11\|
A|----------------------------------------------------------------------|
E|----------------------------------------------------------------------|
Riff 4: (Same as intro)
E|----------------------------------------------------------------|
B|----------------------------------------------------------------|
G|----------------------------------------------------------------|
D|----------------------------222---------------------------------|
A|444-222-000-----444-222-000-----444-222-000-----444-222-000-----|
E|------------222-----------------------------222-------------000-|
Riff 1:
Gliding through the waves to free all the captives
Boarding the vessels, we know all the tactics
We're the menace, the curse of the sea
We pulverize the men o'war, pay or flee!!
Bridge:
Fly our flag, we teach them fear...
Chorus:
Under jolly roger...
Outro (Same as intro, ends with an E5 chord):
Pay or flee!! Ha haa!
--------------------------------------------------
This is my first TAB, so don't except much...
At least the timing isn't right.
Email your critics and thougts to me.





Ваше мнение



Капча