under jolly roger
[ tabs ]
Basic Riffs
Transcribed by
Mikko Issakainen, [email protected]
You should be able to play this song through with these tabs but I didn't pick
out all of the solos (they take too much time) but there might be some
measures...
--------------------------------------------------------------------------------
Under Jolly Roger
Fig.1:
F#m
1 2 3 4 1 2 3 4
|---------------------------------|---------------------------------|
|---------------------------------|---------------------------------|
|---------------------------------|---------------------------------|
|---------------------------------|-------------------------2-2-2---|
|-4-4-4---2-2-2---0-0-0-----------|-4-4-4---2-2-2---0-0-0-----------|
|-------------------------2-2-2---|---------------------------------|
End Fig.1
1 2 3 4 1 2 3 4
|---------------------------------|---------------------------------|
|---------------------------------|---------------------------------|
|---------------------------------|---------------------------------|
|---------------------------------|---------------------------------|
|-4-4-4---2-2-2---0-0-0-----------|-4-4-4---2-2-2---0-0-0-----------|
|-------------------------2-2-2---|-------------------------0-0-0---|
(Repeat Fig. 1 3 times)
Verse Riff:
F#5
1 2 3 4 1 2 3 4
| X---X=X X---X=X X---X=X X---X=X | X---X=X X---X=X X---X=X X---X=X |
Weigh anchor, hoist the sails
A5 B5 E5 A5 End Verse Riff
1 2 3 4 1 2 3 4
| / X=X=X=X / X=X=X=X | / X=X=X=X / / |
(Repeat Verse Riff 3 times)
Cruisin' for booty on watery trails
No exploiter we see can still sail on
Our cannons fire till his ship goes down
BRIDGE:
C#5
1 2 3 4 1 2 3 4
| / X=X X=X=X=X / X=X X=X=X=X | / X=X X=X=X=X / X=X X=X=X=X |
Fly our flag, we teach them fear
E5 F#5
1 2 3 4 1 2 3 4
| / X=X X=X=X=X / X=X X=X=X=X | / X=X X=X=X=X / X=X X=X=X=X |
C#5
1 2 3 4 1 2 3 4
| / X=X X=X=X=X / X=X X=X=X=X | / X=X X=X=X=X / X=X X=X=X=X |
E5 (7th fret) F#5
1 2 3 4 1 2 3 4
| / X=X X=X=X=X / X=X X=X=X=X | / X=X X=X=X=X / X=X X=X=X=X |
CHORUS:
F#5 E5 F#5 A5 F#5
1 2 3 4 1 2 3 4
| / / | / / / / |
Under Jolly Roger
E5
1 2 3 4 1 2 3 4
| / / |(1st bar of Fig.1) |
F#5 E5 F#5 A5 F#5
1 2 3 4 1 2 3 4
| / / | / / / / |
Under Jolly Roger
E5
1 2 3 4 1 2 3 4
| / / |(2nd bar of Fig.1) |
(Verse Riff 4 times)
(Bridge & Chorus)
(SOLO)
(Fig.1)
(Verse Riff 4 times)
(Bridge & Chorus)
(Fig.1 twice)
1 2 3 4 1 2 3 4 1 2 3 4 1 2 3 4
----3----- F -----3---- -----3----
|-------16~~--|-19--16--19--19'(21)-----|-19--17--16--17--16-----|-16~~-------|
|-------------|-------------------------|---------------------19-|------------|
|-18~~--------|-------------------------|------------------------|------------|
|-------------|-------------------------|------------------------|------------|
|-------------|-------------------------|------------------------|------------|
|-------------|-------------------------|------------------------|------------|
1 2 3 4 1 2 3 4 1 2 3 4
---3---- -----3---- -----3---- -----3---- -----3----
|----------------------------|-----------------------|------------------------|
|-------------------------H--|-----------------------|------------------------|
|-13~~-----14-13~-------13-14|-16--14--13------13~---|-13--14--13-------------|
|----------------------------|-------------16--------|-------------16--14--16-|
|----------------------------|-----------------------|------------------------|
|----------------------------|-----------------------|------------------------|
1 2 3 4 1 2 3 4
|-------------|----------------------------------------------|
|-------------|----------------------------------------------|
|-------------|------------------------H---------------------|
|-13~~--------|-9---11-11-11-11-11-11-9-11-11-11-11-11-11-11-|
|-------------|----------------------------------------------|
|-------------|----------------------------------------------|
|-----------------|-----------------|-----------------|-----------------|
|-----------------|-----------------|-----------------|-----------------|
|-----------------|-----------------|-----------------|-----------------|
|-----------------|-----------------|-----------------|-----------------|
|-----------------|-----------------|-----------------|-----------------|
|-----------------|-----------------|-----------------|-----------------|





Ваше мнение



Капча