uaschitschun

[ tabs ]

Uaschitschun

Transcription by [email protected] (erik gotborn)

UASCHITSCHUN

Taken from the album Port Royal .

Riff 1
E --------------------------------------------
B --------------------------------------------
G --------------------------------------------
D --11-9--------------------------------------
A -------11--11----7--9--11--9--7-9-7-9-------
E ---------------------------------------9--7-

E --------------------------------------------
B --------------------------------------------
G --------------------------------------------
D --11-9--------------------------------------
A -------11--11----7--9--11--9--7-9-7---------
E --------------------------------------9-----

Riff 2

E ----------------
B -----------------
G ----------------
D -6-6--------------
A -4-4------------
E --------------
x

Riff 3a

E -------------
B -------------
G -------------
D --6------1---
A --4------0----
E -------------
x x

Riff 3b

E -----------------------------------------------------
B -----------------------------------------------------
G -----------------------------------------------------
D --6-6-6-6--4--6--9--6--x-1--1-1-1-1--4--6--9--4--x-6-
A --4-4-4-4--2--4--7--4--x-0--0-0-0-0--2--4--7--2--x-4-
E -----------------------------------------------------
x x x x x x x x

Riff 4
E -----------------------------------------------
B -----------------------------------------------
G -----------------------------------------------
D --6-----9--4--6-----------1--------6-----1---4-
A --4-----7--2--4---7-6-7-6-0--4-----4-----0---2-
E -----------------------------2-----------------

Riff 5a
E ------------------------------------------------------------------
B ------------------------------------------------------------------
G --1-------------1----------------1-------------1------------------
D --2--4-----4-7--2--4-----4-7-4---2--4-----4-7--2--4-----4-7-------
A --2--2--4--2-5--2--2--4--2-5-2---2--2--4--2-5--2--2--4--2-5-7---4-
E --------2-------------2----------------2-------------2------5---2-

Riff 5b
E --------------------------------------------------------------------
B --------------------------------------------------------------------
G --1-------------1----------------1----------------------------------
D --2--4-----4-7--2--4-----4-7-4---2--4-----4-7-----------------------
A --2--2--4--2-5--2--2--4--2-5-2---2--2--4--2-5--4---4----------------
E --------2-------------2----------------2-------2---2---4--2--0--2-0-

Riff 6
E ----------------------------------------
B ----------------------------------------
G --6--4--6-------------------------------
D --6--4--6---9-4--6--1---4----9----4---1-
A --4--4--4---7-2--4--0---2----7----2---0-
E ----------------------------------------

Riff 7

E -----------------------------------------------------------
B -------5-7-5-7-5-7---------------5-7-5-7-5-7---------------
G -------------------6--4----------------------6--4----------
D --6----------------------6--6----------------------6--4----
A --4-------------------------4-------------------------2----
E -----------------------------------------------------------

E
-------------------------------------------------------------------------
B
--5-7-5-7-5-7-------------5-7-5-7-5-7-------------5-7-5-7-5-7------------
G
--------------6--4--------------------6--4--------------------6--4-------
D
--------------------6--6--------------------6--4--------------------6--6-
A
-----------------------4-----------------------2-----------------------4-
E
-------------------------------------------------------------------------

Riff 8
E -----------------------------
B -----------------------------
G -----------------------------
D --6----1---------4-------4-6-
A --4----0----4----2--4-4--2-4-
E ------------2-------2-2-------

Riff 9
E ---------------------------------
B ---------------------------------
G ---------------------------------
D --6--4--6-4-4-6--4---------------
A --4--2--4-2-2-4--2---------------
E --------------------4--2--0--2-0-

Riff 10
E -------------------------------
B -------------------------------
G -------------------------------
D -----------------------------6-
A -----------------------------4-
E --4--2--0--2-0--4--2--0--2-0---

UASCHITSCHUN

Riff 1 x3
Riff 2 x1
Riff 3a + 3b x4
Riff 4 x2
No more eagles gonna ride the wind
Turning circles in the sky
Badlands growing and the bison’s gone
Uaschitschun tell me why

Riff 5a x1
Why’d you kill my creed
Claiming earth and wind
You never kept your vow
But you can’t lock me in

Riff 6 x2
I’m riding free
Riding free with the wind
Free as an eagle
Proud as a king

Riff 7 x1
Riff 8 x2
Riff 5a x1
Riff 4 x2
My mother’s the earth and my father’s the wind
You can’t possess them, they are free
It’s time for you to see what you have done
Can’t hold my soul cause I will flee

Riff 5b x1
Why you kill yourself
Ravage what you need to live
You can’t eat your gold
Nature’s calling you
Riff 6 x2
Riff 9 x4
Riff 10 x1





Ваше мнение



Капча