treasure island
[ tabs ]
Treasure Island
from
Pile of Skulls

Transcription by Marc Arnold
contact: [email protected]
For right rhythm please listen the song.
/: slide up
: slide down
b: bend up
r: release bend
h: hammer on
p: pull off
*: repeat
Riff 1:
--------------------------------------------------------
--------------------------------------------------------
--------------------------------------------------------
------4-4---------------4-4---------------7-7-4-4-------
--2-2-----5-5-4-----2-2-----5-5-4-----5-5---------5-4---
----------------5-----------------5---------------------
--------------------
--------------------
--------------------
------7-7-4-4-------
--5-5---------5-4---
--------------------
Riff 2:
-----------------------------------------------------
-----------------------------------------------------
----------------------2------------------------------
--4-2-4---4---4p2p0h2---4---2---2---------4p2p0h2----
------------------------------5-----5-2-----------2--
-----------------------------------------------------
Riff 3:
----------------------------------------------
----------------------------------------------
----------------------------------------------
----------------7--------------------7-7-9----
------------7/9-5-95-7-----------5--5-5-7-9--
--7-7-often-5/7---73-5-5-5-often-3--------7--
Riff 4:
-----------------------------------------------
-----------------------------------------------
----------------------------------2------------
------4-4-----------------4-4-2-4---4-2h4p2----
--2-2-----5-5-4-4-----2-2-------------------2--
------------------5-5--------------------------
Riff 5:
--/-----------------------------------------/--------------------------
--/-----------------------------------------/--------------------------
--/*----------------------------------------/--------------------------
--/*-11-9-7-4---2---9-7-4-2---11-9-7-4-2-4-*/--------------------------
--/---9-7-5-2---0---7-5-2-0----9-7-5-2-0-2-*/-3p2p0-5p3p0-7p5p0-9p7p0--
--/-----------------------------------------/--------------------------
Riff 6:
-----------------------------------
-----------------------------------
-----------------------------------
--4---7-2-4---7-2-7---4-2-7---9-2--
--2---5-0-2---5-0-5---2-0-5---7-0--
-----------------------------------
Riff 7:
-----------------------------------------------
-----------------------------------------------
-----------------------------------------------
----------------7------------------------------
--9-----7-----9-5---9-----7-----7h9p7h9p7h9p7--
--7-7-7-5-5-5-7-----7-7-7-5-5-5----------------
-----------------------------------------------
-----------------------------------------------
-----------------------------------------------
----------------7---------------7h9p7h9p7h9p7--
--9-----7-----9-5---9-----7--------------------
--7-7-7-5-5-5-7-----7-7-7-5-5-5----------------
Riff 8:
---------------------------------------------------------------
---------------------------------------------------------------
----------2-2-------------2-2-------------2-2------------------
------4-4-----4-4-----4-4-----4-4-----4-4-----4-4-2-2-2-2-2-2--
--2-2-------------2-2-------------2-2--------------------------
---------------------------------------------------------------
---------------------------------------------------------------
---------------------------------------------------------------
----------2-2-------------2-2-----4-4-2-2----------------------
------4-4-----4-4-----4-4-----4-4---------4-4-2-2-----2-2------
--2-2-------------2-2-----------------------------5-5----------
----------------------------------------------------------5-5--
Riff 9:
---------------------------------------------------------------
---------------------------------------------------------------
------------------------------------------------3h5p3p2--------
--4---------4---------4---------2-2-4---------4---------4------
--2-2-2-2-2-2-2-2-2-2-2-2-2-2-2-0-0-2-2-2-2-2-2-----------0-2--
---------------------------------------------------------------
------------------------------------------------------------------------
------------------------------------------------------------------------
------------------------------------------------------------------------
--7---------7---------7-------------7---------7---------7-------7-9-11--
--5-5-5-5-5-5-5-5-5-5-5-5-5-5-5-7-7-5-5-5-5-5-5-5-5-5-5-5-5-5-5-5-7--9--
--------------------------------5-5-------------------------------------
Riff 10:
-----------------------/---------------------------------------/-
-----------------------/---------------------------------------/-
-----------------------/*-------------------------------------*/-
--4--2--4--7--2--4-----/*-4---4-4---2---4-4---7---2-2---4-----*/-
--2--0--2--5--0--2--4--/--2---2-2---0---2-2---5---0-0---2---4--/-
--------------------2--/------------------------------------2--/-
Lead 1:
When you know it better, transcribe it.
-----------------------------------------------
------------10-10-----------------9p7----------
------9p7h9-------9p7h9-----7h9p7-----9p7------
--9-9-------------------9-9---------------9p7--
-----------------------------------------------
-----------------------------------------------
----------------------------------------------
------------10-10-----------------9p7---------
------9p7h9-------9p7h9-----7h9p7-----9p7-----
--9-9-------------------9-9---------------9p7-
----------------------------------------------
----------------------------------------------
-----------------------------------------------
------------10-10-----------------10p7---------
--7-7-9p7h9-------9p7h9-7-7-7h9p7------9p7-----
-------------------------------------------9p7-
-----------------------------------------------
-----------------------------------------------
-----------------------------------------------
------------10-10------------------------------
------9p7h9-------9p7h9---9p7h9----------------
--9-9-------------------9-------7--------------
-----------------------------------------------
-----------------------------------------------
Lead 2:
--------------------------------------------
--7--7-7-7-5------------5--5-5-5------------
-------------7--7-7-7------------7----------
-----------------------------------7--7-7-7-
--------------------------------------------
--------------------------------------------
Lead 3:
------7----------------7---------------------------------------------
----7---7-3-5-2-3----7---7-3-5----------5----------------------------
--4----------------4-----------6-7----6---6---6-4-6-----6-------4-6--
------------------------------------7-------7-------4-7---7-4-7------
---------------------------------------------------------------------
---------------------------------------------------------------------
Solo 1:
When you know it, transcribe it.
Solo 2A:
I think there are some mistakes.
7:41 7:44 7:48
---------------------8p7p5-------------5-7h8p7p5-------------------------------
--5b-----------------------8-5---5-7-8-----------5-----------------------------
-----4-2---0-------------------7-----------------------------------------------
---------4---2---------------------------------------5-5-4-4---4---4-4h5p4-----
---------------4-2-------------------------------------------5---5---------5-7-
-------------------------------------------------------------------------------
7:51 7:55
--15h17p15p14-------17----14----14-----------------------------------2-3-5-3-2-
--------------17-15----17----15----14------3-5br-5p3h5-3b--------3-5-----------
--------------------------------------14------------------4--2-4---------------
-------------------------------------------------------------------------------
-------------------------------------------------------------------------------
-------------------------------------------------------------------------------
------2------------------
--5-3---5-3-5------------
-------------------------
-------------------------
-------------------------
-------------------------
???????
Solo 2B:
8:23
--17p15p14-19p17p15-17p15p14-19p17p15-17p15p14-19p17p15p-19p17p15-17p15p14--
----------------------------------------------------------------------------
----------------------------------------------------------------------------
----------------------------------------------------------------------------
----------------------------------------------------------------------------
----------------------------------------------------------------------------
------14-----14h15p14---------------------------------------
--17b----16b----------17p15p14------------------------------
-------------------------------16p14-------16p14-------16b--
-------------------------------------16p14-------16p14------
------------------------------------------------------------
------------------------------------------------------------
8:31 8:37
--------------------------------17b-17p15-14-17p15-14---------------------
--------15------------------------------------------------------5---------
--16-18-----18-16-14-16brbrbr---------------------------4-7-6-7---7-6-4/6-
--------------------------------------------------------------------------
--------------------------------------------------------------------------
--------------------------------------------------------------------------
8:44
-------------------------------------------------------14br----------
--------------5-----------12--15p14-12--15p14-12-14-15------12-15p14-
--7-4---7-6-7---7-64/6----------------------------------------------
---------------------------------------------------------------------
---------------------------------------------------------------------
---------------------------------------------------------------------
--18b--20b--22b--20p18-20--
---------------------------
---------------------------
---------------------------
---------------------------
---------------------------
Playlist:
2 x Riff 1 (1:23)
2 x Riff 2 (1:37)
2 x Riff 3 (1:52)
1 x Riff 4 (2:05)
2 x Riff 3 (2:10)
2 x Riff 5 (2:23)
2 x Riff 6 (2:35)
2 x Riff 1 (2:45)
2 x Riff 3 (3:03)
2 x Riff 5 (3:17)
2 x Riff 6 (3:29)
2 x Riff 7 (3:43)
8 x Riff 8 (3:57)
3 x Lead 1 (5:13)
2 x Riff 9 (5:35)
1 x Lead 1 (5:56)
2 x Riff 9 (6:08)
2 x Lead 2 (6:28)
2 x Lead 1 (6:38)
5 x Lead 3 (7:06)
1 x Riff 10 (7:20)
Solo 2A (7:41)
2 x Lead 3 (8:09)
with Riff 10
Solo 2B (8:23)
2 x Riff 1 (8:51)
2 x Riff 2 (9:05)
2 x Riff 3 (9:19)
2 x Riff 5 (9:33)
4 x Riff 6 (9:45)
4 x Riff 1 (10:13)





Ваше мнение



Капча