the phantom of black hand hill
[ tabs ]
The Phantom of Black Hand Hill
from
Black Hand Inn

Transcription by Marc Arnold
contact: [email protected]
For right rhythm, please listen the song.
Riff 1:
----5-----------------5---------------5-----------------5-3----------
--3---6-3-5---3-----3---6-3-5---6---3---6-3-5---3-----3-----6-5---3--
------------5---2-------------5---------------5---2-------------5----
---------------------------------------------------------------------
---------------------------------------------------------------------
---------------------------------------------------------------------
Riff 2:
-----------------------------------------------
-----------------------------------------------
--------------5---------------------------5-7--
--------------3-5-------------------------3-5--
--5-5-5-often---3-5-5-5-often-3-3-3-3-3-3------
-----------------------------------------------
Riff 3:
--------------------------------------------
--------------------------------------------
--------------------------------------------
--7-7-often-5-7---5-----7-7-often-5-7---5---
----------------8---------------------8-----
--------------------8-----------------------
--------------------------------
Gtr. 2 --------------------------------
--------------------------------
5-7---5---------------5-7---5---
3-5-8-3-3-------------3-5-8-3---
----6---1-----------------6-----
Riff 4:
---------------------------------
---------------------------------
---------------------------------
--7-7---10-9-7------10---10------
--5-5----8-7-5---10--8----8-10---
------------------8----------8---
Riff 5:
----------------------------------------
----------------------------------------
----------------------------------------
--7-10-7-5-7-3-5-2----7-10-7-5-7-3-5----
--5--8-5-3-5-1-3-0----5--8-5-3-5-1-3----
----------------------------------------
Riff 6:
--/------3-3-2-2---------2-2----------------3-3-2-2-----2h3p2h3p2--
--/--5-5---------3-3-5-5-----3-3--------5-5---------3-3------------
--/*------------------------------4-4------------------------------
--/*---------------------------------------------------------------
--/----------------------------------------------------------------
--/----------------------------------------------------------------
------3-3-2-2---------2-2---------------3-3-2-2-----------------/
--5-5---------3-3-5-5-----3-3-------5-5---------3-3-3h5p3h5p3---/
------------------------------4-4------------------------------*/
---------------------------------------------------------------*/
----------------------------------------------------------------/
----------------------------------------------------------------/
------5-5-4-4---------4-4---------------5-5-4-4-----4h5p4h5p4--
--7-7---------5-5-7-7-----5-5-------7-7---------5-5------------
------------------------------6-6------------------------------
---------------------------------------------------------------
---------------------------------------------------------------
---------------------------------------------------------------
------5-5-4-4---------4-4---------------5-5-4-4----------------
--7-7---------5-5-7-7-----5-5-------7-7---------5-5-5h7p5h7p5--
------------------------------6-6------------------------------
---------------------------------------------------------------
---------------------------------------------------------------
---------------------------------------------------------------
Solo:
3:33 3:36
------8-6-5-------5-6p5---------------------------------------------
------------8-6-8-------6-------------------------------------------
--------------------------------------------------------------------
--------------------------------5-7-5---5---------------5---7-5-----
----------------------------5-8-------8---8-5-8-5---5-8---------8-5-
--------------------------------------------------8-----------------
??????
3:41 3:51 3x
--5-6-8-6-5h6p5---5-----------------------------/--15p14p12-14p12p11-12p11p9-
----------------8---6-8-6---6-8-6---5-6-8-------/----------------------------
--------------------------7-------7-------5-----/*---------------------------
------------------------------------------------/*---------------------------
------------------------------------------------/----------------------------
------------------------------------------------/----------------------------
???
3:56 3:58
--11p9p8--/-------------10----------------------16-------16-------16-------15b
----------/----10-12-13----13p12-10-12-10----------13-------13-------13-------
---------*/-------------------------------12-9--------12-------12-------12----
---------*/-------------------------------------------------------------------
----------/-------------------------------------------------------------------
----------/-------------------------------------------------------------------
??
4:01
----------------------12-----------12-----------
-----12----------12------15-12--------15-12-----
-------------------------------12-----------12--
--14----14-12-14--------------------------------
------------------------------------------------
------------------------------------------------
4:11
--/-------------------------------------------------------------------
--/-----12------------------12-------15---15p13p12------12------------
--/*-------14-12---------------14-12-----------------------14-12------
--/*-14----------14---12-14--------------------------14----------14---
--/-------------------------------------------------------------------
--/-------------------------------------------------------------------
-------------------------/----------------------------------------------
--------12---------------/-----15------------------15-------18-18p17p15-
-----------14-12-14-----*/*-------17-15---------------17-15-------------
--12-14-------------12--*/*-17----------17---15-17----------------------
-------------------------/----------------------------------------------
-------------------------/----------------------------------------------
-----------------------------------------/
-----15------------------15--------------/
--------17-15---------------17-15-17----*/
--17----------17---15-17-------------15-*/
-----------------------------------------/
-----------------------------------------/
Playlist:
2 x Riff 1 (0:23)
4 x Riff 2 (0:43)
2 x Riff 3 (1:03)
4 x Riff 2 (1:12)
2 x Riff 3 (1:32)
2 x Riff 4 (1:42)
2 x Riff 5 (1:52)
1 x Riff 1 (2:02)
4 x Riff 2 (2:12)
2 x Riff 3 (2:32)
2 x Riff 4 (2:41)
2 x Riff 5 (2:51)
1 x Riff 6 (3:01)
solo (3:31)
2 x Riff 1 (4:50)
4 x Riff 2 (5:10)
2 x Riff 3 (5:30)
4 x Riff 4 (5:40)
2 x Riff 1 (6:00)





Ваше мнение



Капча