From [email protected] Fri Apr 4 17:03:16 1997
Date: Mon, 10 Mar 1997 17:19:08 +0100
From: [email protected]
To: [email protected]
Subject: NEW RUNNING WILD guitar tab
FIGTH THE FIRE OF HATE - From RUNNING WILD
-------------------------------------------
Out of the album BLack Hand Inn
Tabbed and trascribed by Ivan "JESTER" Jimenez
e-mail: [email protected]
Hi from Spain, guitar players!. Here you got a nice song from Running Wild.
Follow my indications and you'll find easy to play.
Notation is for a standard tuned guitar.
There are only the patterns for the rythm guitar. I'll post the solos when
I finish tabbing it. Be patient.
If there's any mistake (sure), omission, POSITIVE criticism, or some other
things, feel free to e-mail me. If you are good playing lead guitar and
think you can tab the solos, DO IT, PLEASE! I've got several problems with
my left-hand fingers...Stop cheating, and HAVE FUN!!!
(1) INTRO:
A
e|-------------------------------------------------------------|
B|-------------------------------------------------------------|
G|-------------------------------------------------------------|
D|-7-----------------------------------------------------------|
A|-7-----------------------------------------------------------|
E|-5-5-5-5--5-5-5--5-5-5--5-5-5---5-5-5--5-5-5--5-5-5--5-5-5---|
pm.... Com'on, let's go!!
(palm muted)
(2) Riff 1:
B A E B
|----------------------------------------|
|----------------------------------------|
|----------------------------------------|
|--4-------2-------9-------4-------------|
|--4-------2-------9-------4-------------|
|--2--0-2--0--0-5--7--0-7--2--5-2-0-2-0--|
|----------------------------------------|
pm pm pm pm.....
(3) Riff 2:
B D B A
|----------------------------------------------|
|----------------------------------------------|
|--4---------7--------4---------2--------------|
|--4---------7--------4---------2--------------|
|--2--0-0-2--5-0-0-5--2--0-0-2--0--5-2-0-2-0---|
|----------------------------------------------|
pm... pm... pm... pm......
(4) Riff 3:
E D E F# E D E F#
|-------------------------------------------|
|-------------------------------------------|
|--9---------7--9--11-9---------7--9--11----|
|--9---------7--9--11-9---------7--9--11----|
|--7-7-7-7-7-5--7--9--7-7-7-7-7-5--7--9-----|
|-------------------------------------------|
pm..... pm....
B A B D
|---------------------------|
|---------------------------|
|---------------------------|
|--9-9--7-9--12-------------|
|--9-9--7-9--12-------------|
|--7-7--5-7--10--10-7-5-7-5-|
pm......
E D E F# E D E F#
|-------------------------------------------|
|-------------------------------------------|
|--9---------7--9--11-9---------7--9--11----|
|--9---------7--9--11-9---------7--9--11----|
|--7-7-7-7-7-5--7--9--7-7-7-7-7-5--7--9-----|
|-------------------------------------------|
pm..... pm....
D B G
|---------------------------|
|---------------------------|
|--7---4--------------------|
|--7---4---5----------------|
|--5---2---5----------------|





Ваше мнение



Капча