soulless

[ tabs ]

Soulless
from Black Hand Inn

Transcription by Marc Arnold, Germany
Contact: [email protected]

For right rhythm, please listen the song.

Riff 1:

--------------------------------------------------------------
--------------------------------------------------------------
------------------------------2---------------------------4-2-
--4-----4-----4-----4-----2-4-2-4-4-----4-----4-----4-2---4-2-
--4-----4-----4-----4-----2-4---4-4-----4-----4-----4-2-------
----2-2---2-2---2-2---2-2-----------2-2---2-2---2-2-----------

---------------------------------------------------------------
---------------------------------------------------------------
------------------------------2---------------------4-2---2----
--4-----4-----4-----4-----2-4-2-4-2-----2-----2-----4-2-4-2---4
--4-----4-----4-----4-----2-4---4-2-----2-----2---------4-----4
----2-2---2-2---2-2---2-2-----------0-0---0-0---0-0------------

Riff 2:

3 x 1.+3. 2. after 3.
--------------------/-----/---/ --------------------
--------------------/-----/---/ --------------------
--------------------/-----/---/ --------------------
--6--4---2--------2-/--2--/---/ -6--4--2--------2---
--4--2---0-4------0-/--0--/-4-/ -4--2--0--4---4-0-2-
-------0---2--2-2---/-----/-2-/ ----------2---2---0-

Riff 3:

-----------------------------
-----------------------------
-----------------------------
-------2---------7---------9-
--4----0----4----5----7----7-
--2---------2---------5------

Riff 4:

--------------------------------------------------------------
--------------------------------------------------------------
--------------------------------------------------------------
-------2----4----7----9-------------2-2-2----4-4-4----7-7-9---
--4----0----2----5----7----4-4-4----0-0-0----2-2-2----5-5-7---
--2------------------------2-2-2------------------------------

Riff 5:

------------------------------------------------------------
------------------------------------------------------------
------------------------------------------------------------
-------2--4-6---------2--4-----------2--4-6---7----4-2-4----
--4--4-0--2-4----4--4-0--2-2----4--4-0--2-4---5----2-0-2-2--
--2--2-----------2--2------0----2--2---------------------0--

Riff 6:

-----------------------
-----------------------
-----------------------
-----2-----------7--9--
--4--0--4-----4--5--7--
--2-----2-----2--------

Playlist:

5 X Riff 1
3 x Riff 2 (0:56)
2 x Riff 3 (1:08)
3 x Riff 1 (1:19)
3 x Riff 2 (1:53)
2 x Riff 3 (2:04)
1 x Riff 4 (2:15)
4 x Riff 5 (2:38)
4 x Riff 1 (3:01)
3 x Riff 2 (3:46)
4 x Riff 3 (3:57)
2 x Riff 6 (4:20)
2 x Riff 1 (4:31)





Ваше мнение



Капча