soldiers of hell
[ tabs ]
Basic Riffs
Transcribed by
Mikko Issakainen, [email protected]
You should be able to play this song through with these tabs but I didn't pick
out all of the solos (they take too much time) but there might be some
measures...
--------------------------------------------------------------------------------
Soldiers of Hell
Fig.1 (Gtr1) End Fig.1
1 2 3 4 1 2 3 4 1 2 3 4 1 2 3 4
Pm- Pm- Pm- Pm- Pm- Pm- Pm-
|-----------------|-----------------|-----------------|-----------------|
|-----------------|-----------------|-----------------|-----------------|
|-----------------|-----------------|-----------------|-5-5-5-4---------|
|-----2-----2-----|-2-----5---5-4-5-|-----2-----2-----|-3-3-3-2---5-4-5-|
|-0-0---0-0---0-0-|---0-0-3---3-2-3-|-0-0---0-0---0-0-|-----------3-2-3-|
|-----------------|-----------------|-----------------|-----------------|
Gtr2: C B C
/ / /
(w/Fig.1)
A C B C
| / | | | / / / |
(Fig.1 twice)
Black shadows'n' black horses
Dark warriors out of hell
Mighty and evil
Reflexion of ancient tale
CHORUS:
A C D F E D C
|/ | / | / | /-/-/-/ /-/-X |
A gang appears beside you They're the men you have to scare
A C D F E D C
|/ | / | / | /-/-/-/ /-/-X |
You see their axes shining And their long black hair Soldiers
A F E D C C F E D C
| / | /-/-/-/ /-/-X | / | /-/-/-/ /-/-X |
of hell Soldiers of hell Soldiers
A F E D C C F E D C
| / | /-/-/-/ /-/-X | / | /-/-/-/ /-/-X |
of hell Soldiers of hell
(Fig.1 twice)
(Fig.1 twice)
Whiplashes, swordstrokes
The avaricious tyrant dies
Shining axes'n' shining spears
Black faces with mean red eyes
(CHORUS)
4 times
||-----------------|-----------------|-----------------|-----------------||
||-----------------|-----------------|-----------------|-----------------||
||*----------------|-----------------|-----------------|----------------*||
||*----------------|-----------------|-----------------|----------------*||
||-0-0-3-0-0-5-0-0-|-7-0-0-8-0-0-7-0-|-0-0-3-0-0-5-0-0-|-5-3-0-5-3-0-3-5-||
||-----------------|-----------------|-----------------|-----------------||
|-----------------|--------------HP-|
|-----------------|-------Gtr1:-565-|
|-2---------------|(2)----Gtr2:-575-|
|-2---------------|(2)--------------|
|-0---------------|(0)--------------|
|-----------------|-----------------|
(Gtr 3; This chord chages in this order: A G F )
/ (/) (/) (/) 3 Times
||---------------HP-|--------------HP-|-----------------|-8---5--------HP-||
||--------------565-|-------------565-|-------5---------|-10--5-------565-||
||*5------------575-|-------------575-|-5-----5-----5---|-------------575*||
||*7----------------|-7---------------|-7-----------7---|----------------*||
||------------------|-7---------------|-----------------|-----------------||
||------------------|-----------------|-----------------|-----------------||
E F G
/ (/) / /
|---------------HP-|--------------HP-|-----------------|-8---5--------HP-|
|--------------565-|-------------565-|-------5---------|-10--5-------565-|
|-5------------575-|-------------575-|-5-----5-----5---|-------------575-|
|-7----------------|-7---------------|-7-----------7---|-----------------|
|------------------|-7---------------|-----------------|-----------------|
|------------------|-----------------|-----------------|-----------------|
(CHORUS)
'Outro'





Ваше мнение



Капча