roaring thunder
[ tabs ]
Roaring Thunder
from Pile of Skulls
Transcription by Marc Arnold, Germany
Contact: [email protected]
For the right rhythm, please listen the song.
Riff 1:
-------------------------------------------------------------
-------------------------------------------------------------
-------------------------------------------------------------
--6----4-6----9-11----9-11-6-4--6----4-6----9-11-------------
--4----2-4----7--9----7--9-4-2--4----2-4----7--9--7--9--2----
-----0------0-------0--------------0------0-------5--7--0----
Riff 2:
------------------------------------------------------------------
------------------------------------------------------------------
------------------------------------------------------------------
--6-4-6-4-6--11-9-11-9-11--2-2-4-----6-4-6-4-6--11-9-11-9-11--2--4
--4-2-4-2-4---9-7--9-7--9--0-0-2-2---4-2-4-2-4---9-7--9-7--9--0--2
---------------------------------0--------------------------------
Riff 3:
/only by the first time/
------------------------------------------------------------------
------------------------------------------------------------------
------------------------------------------------------------------
--7--2--4-4-4-2-4---4-4-4-2-4-7-7--2--4-4-4-2-4---4-4-4-2---------
--5--0--2-2-2-0-2-4-2-2-2-0-2-5-5--0--2-2-2-0-2-4-2-2-2-0-4-------
------------------2-----------------------------2---------2-------
Riff 4:
------------------------------
------------------------------
------------------------------
--6----9----6----4----9----4--
--4----7----4----2----7----2--
------------------------------
Riff 5:
-------------------------------------------------
-------------------------------------------------
-------------------------------------------------
--6-6--4-2-----6-6--4-2-----2-2--4-2--------2--4-
--4-4------4-2-4-4------4-2-0-0------4-2-4--0--2-
-----------------------------------------2-------
Riff 6:
------------------------------------
------------------------------------
------------------------------------
--6----4-6----2-4-------2--4----(6)- only by the 4th
--4----2-4----0-2----6--0--2----(4)-
---------------------4--------------
Playlist:
4 x Riff 1 (0:11)
2 x Riff 2 (0:55)
2 x Riff 3 (1:17)
2 x Riff 4 (1:36)
1 x Riff 1 (1:47)
2 x Riff 2 (1:58)
2 x Riff 3 (2:20)
2 x Riff 4 (2:39)
4 x Riff 5 (2:50)
4 x Riff 6 (3:12)
2 x Riff 1 (4:07)
2 x Riff 2 (4:29)
2 x Riff 3 (4:51)
4 x Riff 4 (5:10)
2 x Riff 1 (5:32)
first part of riff 2





Ваше мнение



Капча