raging fire

[ tabs ]

Raging Fire

Transcription by [email protected] (erik gotborn)

Raging Fire

Riff 1

E ---------------------------------------
B ---------------------------------------
D -----------------------------------7-9-
G --4--------0---------2-0-------0---5-7-
A --2----0-2---2---0-2-------0-2---------
E ---------------------------------------

Riff 2

E ----------------------------------------------------------
B ----------------------------------------------------------
D ----------------------------------------------------------
G --4--4-4--4--4-4--4--4-4--4--7--7-7--7--7-7--7--7-11--11-9-
A --2--2-2--2--2-2--2--2-2--2--5--5-5--5--5-5--5--5--9---9-7-
E ----------------------------------------------------------
x x x x x x x x x x x x x x x x x
E ---------------------------------------------------------
B ---------------------------------------------------------
D ---------------------------------------------------------
G --4--4-4--4--4-4--4--4-4--4--7--7-7--7--7-7--7--7-1--1----
A --2--2-2--2--2-2--2--2-2--2--5--5-5--5--5-5--5--5-0--0-5--
E ---------------------------------------------------------
x x x x x x x x x x x x x x x x x

Riff 3

E ------------------
B ------------------
D ------------------
G ------------------
A --2----5--2--0--2-
E ------------------

Riff 4
E -------------------------------------------
B -------------------------------------------
D -------------------------------------------
G ------1---7-4--4-4-4-4------1---7-----9--7-
A --4---0---5-2--2-2-2-2--4---0---5-----7--5-
E --2---------------------2------------------
x x x x
E -------------------------------------------
B -------------------------------------------
D -------------------------------------------
G ------1---7-4--4-4-4-4------1---7-----6--1-
A --4---0---5-2--2-2-2-2--4---0---5-----4--0-
E --2---------------------2------------------
x x x x

Riff 5

E -----------------------------------------
B -----------------------------------------
D -----------------------------------------
G --------1-----------1------------------1-
A --4-----0-----4-----0-----4--4---4-----0-
E --2-----------2-----------2--2---2-------
x x
Riff 6a

E ------------------------------------------------
B ------------------------------------------------
D ------------------------------------------------
G --4--4-4-4-4-4-4-4--7--4--4-4-4-4-4-4-4-4--9--7-
A --2--2-2-2-2-2-2-2--5--2--2-2-2-2-2-2-2-2--7--5-
E --------------------------------------------------
x x x x x x x x x x x x x x x
E ----------------------------------------------------
B ----------------------------------------------------
D ------------------------7--9------------------------
G --4-4-4-4-4-4-4-4--7-x--5--7------------------------
A --2-2-2-2-2-2-2-2--5-x------------------------------
E ----------------------------------------------------
x x x x x x x x

Riff 6b

E -------------------------------------------------
B -------------------------------------------------
D -------------------------------------------------
G --4---4-4-4-4-4-4-4--7--4--4-4-4-4-4-4-4-4--9--7-
A --2---2-2-2-2-2-2-2--5--2--2-2-2-2-2-2-2-2--7--5-
E --------------------------------------------------
x x x x x x x x x x x x x x x
E ----------------------------------------------------------
B ----------------------------------------------------------
D ----------------------------------------------------------
G --4-4-4-4-4-4-4-4-----------------------------------------
A --2-2-2-2-2-2-2-2--2----5--2--0--2------------------------
E -----------------------------------------------------------
x x x x x x x x
Riff 7

E ----------
B ----------
D -----7--9-
G --4--5--7-
A --2-------
E ----------
x

Riff 8

E ----------------
B ----------------
D ----------------
G --1--------7--4-
A --0--------5--2-
E ----------------

Raging fire

Riff 1 x4
Riff 2 x2
Can you see the licking flame
Waiting for its time
Its increasing energy
Preparing for the prime

Fed up with your boring prate
All senses gettin lost
Second to none ours flame shall rouse
Just like a growing host
Riff 3
Riff 4 x2
Raging fire burning down the walls
Raging fire the rebellion force
Raging fire all across the lands
Raging fire fights in self defense
Riff 1 x2
Riff 2 x4
The anger grows on and on
The young stand up and fight
No more lies and censorships
All oppressed stand tight

Knights of fortune and dictators
They can’t stand this heat
We know what we want from life
Beware we brake your greed
Riff 3
Riff 4 x2
Raging fire burning down the walls
Raging fire the rebellion force
Raging fire all across the lands
Raging fire lights in self defense

Riff 5
Wake up and break the silence
Come on join our league
We must stand defiant
To dethrone this breed

Riff 6a x3
Riff 6b x1
Riff 4 x2
Chorus
Guitar 1: Riff 1 x4
Guitar 2: Riff 6a x1
Riff 7 x3
Riff 8





Ваше мнение



Капча