hymn of long john silver

[ tabs ]

Hymn of Long John Silver

Transcription by [email protected] (erik gotborn)

HYMN OF LONG JOHN SILVER
Taken from the album Ready for Boarding .

This is a tricky song and I’m not sure that this is exactly as it is
played on the record. So if you have any adjustments, please e-mail them
to me.

Pattern 1
Bassintro
G ----------------------------------------
D -----------------------------------5--4-
A --2---0---2------2--4--5--4--0--2-------
E --------------2-------------------------
Guitar 1
E -----------------------------------
B -----------------------------------
G -----------------------------------
D -----------------------------------
A --2---0---2------2--4--5--4--0--2--
E --------------2--------------------
Pattern 2
Guitar 1
E ---------------------------------------
B ---------------------------------------
G ---------------------------------------
D -----------------------------------5--4
A --2---0---2------2--4--5--4--0--2------
E --------------2------------------------

Guitar 2
E ------------------------------------------
B ------------------------------------------
G --------------------6--7--6--------12--11-
D --9---7---9------9-----------7--9---------
A --------------9---------------------------
E ------------------------------------------
Pattern 3

Guitar 1
E -----------------------------------
B -----------------------------------
G --------------------6--7--6--------
D --9---7---9------9-----------7--9--
A --------------9--------------------
E -----------------------------------

Guitar 2
E ---------------------------------------------
B -------------------------14--15--14----------
G --16---14---16-------16--------------14--16--
D -----------------14--------------------------
A ---------------------------------------------
E ---------------------------------------------
Riff 1
E ------------------------
B ------------------------
G ------------------------
D --1--4-4--4-4--4-4--4-4-
A --0--2-2--2-2--2-2--2-2-
E ------------------------
x x x x x x x x

Riff 2a
Guitar 1

E -----------------------------------------
B -----------------------------------------
G -----------------------------------------
D --4-4-------4-4---4--1--4-----4--1--4----
A --2-2--5-5--2-2---2--0--2--4--2--0--2--4-
E -------3-3-----------------2-----------2-
x x x x x x

Riff 2b
Guitar 2
E
-------------------------------------------------------------------------
B
-------------------------------------------------------------------------
G
-----------------------7---7-9-7-----------------------------------------
D
--9--7--9------7-9-7-9-------------9-7-9~~-9--7--5-----------------------
A
-------------9--------------------------------------9--7--5---7--5--7----
E
-----------------------------------------------------------------------7-

Riff 3
E ----------------------------
B ----------------------------
G --------------------------9-
D --------------------------9-
A --7--5--7-----7--5--7-----7-
E -----------7-----------7----

Pattern 1 x1
Pattern 2 x1
Pattern 3 x1
Riff 1 x4
Riff 2a + 2b x4
Riff 3 x1





Ваше мнение



Капча