genghis khan

[ tabs ]

Genghis Khan

Transcription by [email protected] (erik gotborn)

Genghis Khan
Riff 1
E -----------------------------------------------------
B -----------------------------------------------------
G -----------------------------------------------------
D --4---6-7--11-9---6-1---6-4---6-7--11-9--11-12--11-9-
A --2---4-5---9-7---4-0---4-2---4-5---9-7---9-10---9-7-
E -----------------------------------------------------
Riff 2
E -------------------------------------------------
B -------------------------------------------------
G -------------------------------------------------
D --4-4-4-4-----4-4-4-4-----7-7-7-7-----7-7-7-7--6-
A --2-2-2-2--4--2-2-2-2--4--5-5-5-5--7--5-5-5-5--4-
E -----------2-----------2-----------5-------------
x x x x x x x x x x x x x x x x
Riff 3
E -------------------------------------------------
B -------------------------------------------------
G -------------------------------------------------
D -------------------------------------------------
A --5-5-5-5--4--5-5-5-5--4--9-9-9-9--7--9-9-9-9--7-
E --3-3-3-3--2--3-3-3-3--2--7-7-7-7--5--7-7-7-7--5-
x x x x x x x x x x x x x x x x
E ---------------------------------------------
B ---------------------------------------------
G ---------------------------------------------
D ---------------------------------------------
A --5-5-5-5--4--5-5-5-5--4--9-9-9-9-9--9--9--9-
E --3-3-3-3--2--3-3-3-3--2--7-7-7-7-7--7--7--7-
x x x x x x x x x x x x

Riff 4
E --------------------------------------------
B --------------------------------------------
G --------------------------------------------
D --4--x--------7----7-6--4--x--------4-4-4-4-
A --2--x--5--x--5----5-4--2--x--5--x----------
E --------3--x------------------3--x----------

Riff 5
E ------------------------------------------------------------
B ------------------------------------------------------------
G ------------------------------------------------------------
D --4-4-4-4-4-4-4-4-----------------4-4-4-4-4-4-4-4--7--9---7-
A --2-2-2-2-2-2-2-2-----------------2-2-2-2-2-2-2-2--5--7---5-
E ------------------2-2-2-2-5-5-5-5---------------------------
x x x x x x x x x x x x x x x x x x x x x x x x
E ------------------------------------------------------------------
B ------------------------------------------------------------------
G ------------------------------------------------------------------
D --4-4-4-4-4-4-4-4-----------------4-4-4-4-4-4-4-4-----------------
A --2-2-2-2-2-2-2-2-----------------2-2-2-2-2-2-2-2-5-5-2-2-0-0-----
E ------------------2-2-2-2-5-5-5-5-----------------------------3-3-
x x x x x x x x x x x x x x x x x x x x x x x x x x x x x x x x

Riff 6a Riff 6b
E ------------------------- E -------------------------
B ------------------------- B -------------------------
G ------------------------- G -------------------------
D -----------------4--2--0- D -------------------------
A -2-2-2-2-2-2-2-2--------- A -----------------4--2--0-
E ------------------------- E -2-2-2-2-2-2-2-2---------

Riff 6c
E -------------------------
B -------------------------
G -------------------------
D -------------------------
A ------------------5--3---
E --3-3-3-3-3-3-3-3------6-

Riff 7
E ------------------
B ------------------
G ------------------
D --4-x--4--4--4--4-
A --2-x--2--2--2--2-
E ------------------

GENGHIS KHAN
Riff 1 x2
Riff 2 x4
He was just a gentile man
It was his love to grind
He didn't know the fear
He never had to hide
Riff 3 x1
He loved the glance of metal
And the smell of blood
The flame of badness burned inside him
That was the only thing he had got

Genghis Khan

Riff 4 x2
Riff 1 x2
Riff 2 x4
Can't you see it's all a lie
The time had it made
He was a man like you and me
His era was his fate
Riff 3 x1
He freed his conquered land
From the ban of death
Freedom to the mongolenation
By fanning their wrath

Genghis Khan

Riff 4 x2
Riff 1 x2
Riff 2 x2
Riff 5 x2
Riff 2 x2
Riff 6a x2
Riff 6b x2
Riff 6a x2
Riff 6b x2
Riff 6c x2
Riff 6a x2
Riff 6c x2
Riff 6a x1
Riff 6b x1
Riff 4 x2
Riff 7





Ваше мнение



Капча