#------------------------------PLEASE NOTE---------------------------------#
#This file is the author's own work and represents their interpretation of the #
#song. You may only use this file for private study, scholarship, or research. #
#---------------------------------------------------------------------------#
Crossfire
by Running Wild
Taken from the album
The Brotherhood
VERSION 1.0
BASS TAB
Transcription by Miha Pildek Jakhel
contact: [email protected]
Riff 1:
----------------------------------
----------------------------------
--5-5-----------------------------
-------5-5--7-7--7-7-7-7-7-7-7----
Riff 2:
----------------------------------
----------------------------------
-------5-5--7-7--7-7-7-7-7-7-7----
--3-3-----------------------------
Chorus:
----------------------------------------------------------------------------
----------------------------------------------------------------------------
--3--3------------------------5-5------------------5-5----------------------
-------5--7-7-7-7-7-7-7--5-5-------7--7-7-7-7-7-7-------5-5--7--7-7-7-7-7-7-
--------------------------------------
--------------------------------------
------------5--5-5-5-5-5-5------------
--5-5--3-3------------------5-5--3-3--
Riff 3:
--------------------------
--------------------------
-----------------5-5------
--7-7-7-7-7-7-7------5-5--

How to play:
Riff 2: 2X
Riff 1: 4X
Riff 2: 2X
Riff 1: 2x
Chorus :
Riff 1: 6x
Riff 2: 2x
Riff 1: 2x
Chorus :
Riff 1: 4x
Riff 2: 4x
Riff 1: 2x
Riff 1: 4x
Riff 2: 2x
Riff 1: 2x
Chorus : 2x
Riff 3: 4x
Riff 1: 8x





Ваше мнение



Капча