This is the intro of blazon stone, one of the best song by the running wild
I think that this tab isn't right but on the web i haven't found any tab of this song.
Intro W/Distortion (Lead guitar)
E-------------------------------------------------------------------------------
B-----2-4-5-7-5-7-9-2-4-5-4-5-7-5-4-2-2-4-5-7-5-7-9-2-4-5-4-5-7-5-4-2-2---------
G----------------------------------------------------------------------2--------
D-----------------------------------------------------------------------4-------
A-------------------------------------------------------------------------------
E-------------------------------------------------------------------------------
E-------------------------------------------------------------------------------
B-----2-4-5-7-5-7-9-2-4-5-4-5-7-5-4-2-2-4-5-7-5-7-9-2-4-5-4-5-7-5-4-2-2---------
G----------------------------------------------------------------------2--------
D-----------------------------------------------------------------------4-4-2---
A----------------------------------------------------------------------------4--
E-------------------------------------------------------------------------------
Repeat X2
E-------------------------------------------------------------------------------
B-------------------------------------------------------------------------------
G-------------------------------------------------------------------------------
D---(4-4-4-4)-6-4-2-4-6--6-4-2-9-6-4-6-6-4-2-4-6-6-4-2-9-6-4-2------------------
A---(4-4-4-4)----------4------------------------4-------------4-----------------
E-------------------------------------------------------------------------------
(so fast)
E-------------------------------------------------------------------------------
B-------------------------------------------------------------------------------
G-------------------------------------------------------------------------------
D-----222-444-66(6)---222-444-66(6)--222-444-666-999-666-444-222----------------
A--444-----------444--------------444-------------------------------------------E-------------------------------------------------------------------------------
(Two guitars)
E-------------------------------------------------------------------------------
B-------------------------------------------------------------------------------
G-------------------------------------------------------------------------------
D-----222-444-66(6)--222-444-666---222-444-666-999-666-444-222---222-444-666----
A--444------------444-----------444---------------------------444-----------444-
E-------------------------------------------------------------------------------
E-------------------------------------------------------------------------------
B-------------------------------------------------------------------------------
G-------------------------------------------------------------------------------
D--222-444-666---222-444-666-444-222-----------444-666-999---444-666-999---444--
A-------------444-------------------444-222-777-----------777-----------777-----
E-------------------------------------------------------------------------------
E-------------------------------------------------------------------------------
B-------------------------------------------------------------------------------
G-------------------------------------------------------------------------------
D--666-999-11-11-11-999-666-222---222-444-666-222-444-666---222-444-666-444-222-
A------------------------------444-----------444---------444--------------------
E-------------------------------------------------------------------------------
E-------------------------------------------------------------------------------
B-------------------------------------------------------------------------------
G-------------------------------------------------------------------------------
D-------------------------------------------------------------------------------
A-----444-222-------------------------------------------------------------------
E-------------------------------------------------------------------------------
Rep. X 2
E-------------------------------------------------------------------------------
B-------------------------------------------------------------------------------
G-------------------------------------------------------------------------------
D-------------------------------------------------------------------------------
A--4444444444- 2 444444444 4-6-4-2----------------------------------------------
E--4444444444- 2 444444444------------------------------------------------------

If someone want help me please e-mail me at [email protected]
I hope that someone have the chorus of this song, because i'm not able to do it
Good Bye enjoy this intro if (it's correct)





Ваше мнение



Капча