black wings of death

[ tabs ]

Black Wings Of Death

from

Pile of Skulls

Transcription by Marc Arnold
Contact: [email protected]

For right rhythm,please listen the song.

/: slide up
h: hammer on
p: pull off
b: bend up
r: release bend

Riff 1:

-------------5---------------------------------------5--------
--7--7-7-7-8-----5------------5-7---------7--7-7-7-8-----5----
---------------7---6-7--7-7-7-----6-7-4----------------7---6--
--------------------------------------------------------------
--------------------------------------------------------------
--------------------------------------------------------------

------------------------
-----------5------------
--7--7-7-7---7-6h7p6-4--
------------------------
------------------------
------------------------

Riff 2:

--------------------------------------------------------------
--7--7-7-7-5-7---5------------5-----------7--7-7-7-5-7---5----
---------------7---6-7--7-7-7---7-6-7-4----------------7---6--
--------------------------------------------------------------
--------------------------------------------------------------
--------------------------------------------------------------

-------------------------
-----------5-------------
--7--7-7-7---7-6h7p6-4---
-------------------------
-------------------------
-------------------------

Riff 3:

---------------------------------------------------------------
---------------------------------------------------------------
---------------------------------------------------------------
--4-------------------4----------------------------------------
--2-2-2-often-5-5-2-2-2-often-0-0-0-0-5-5-5-5-7-7-7-7-0-0-0-0--
---------------------------------------------------------------

Riff 4:
1. 2.
-----------------------------------------------------/----/---/-
-----------------------------------------------------/----/---/-
-----------------------------------------------------/----/---/-
--7-----------97-------------97-----7-11--7------7-/-11-/---/-
--5-5-5-often-75-7-----------75-9-9-5--9--5--9-9-5-/--9-/-7-/-
------------------5-5-5-often-----7-7----------7-7---/----/-5-/-

Riff 5:

--------------------
--------------------
--------------------
--4---7-4-2----7----
--2---4-2-0----5-7--
-----------------5--

Riff 6:
1. 2.
----------------------------------------------/-----/---
----------------------------------------------/-----/---
----------------------------------------------/-----/---
----------7-4---------9-7---------9-2---------/-7-9-/-7-
----------5-2-2-2-2-2-7-5-5-5-5-5-7-0-0-0-0-0-/-5-7-/-5-
--7-7-7-7-------------------------------------/-----/---

Playlist:

2 x Riff 1
4 x Riff 2 (0:19)
2 x Riff 3 (0:50)
2 x Riff 4 (1:05)
2 x Riff 3 (1:21)
2 x Riff 4 (1:36)
2 x Riff 5 (1:52)
4 x Riff 6 (2:07)
solo
2 x Riff 2 (2:53)
4 x Riff 3 (3:08)
2 x Riff 4 (3:39)
4 x Riff 5 (3:55)
4 x Riff 2 (4:25)





Ваше мнение



Капча