TEARS - Rufio

By: Matt V ([email protected])

Intro - 1st part (not 100%, but sorta close - its hard to hear)
e|---------------------------------------------------------------------------|
B|----------6--------------6--------------6-----------6--------------6-------|
G|-----7------7---7------7-----7-------7---------7------7-------------7--(x2)|
D|---5---5------5-----7-------------8----------------------------------------|
A|--------------------------------------------6----6------6--6h8p6-------8---|
E|---------------------------------------------------------------------------|

Intro - 2nd part (again, not 100% but pretty close i think)
e|---10--xxxx--11-10-10-----------------------10--xxxx--11-10----------------|
B|---11--xxxx--11-11-11-----11------11--------11--xxxx--11-11---11-----------|
G|--------------------------10--8---10--(x3)--------------------x------------|
D|-----------------------8--------7-----------------------------8------------|
A|---------------------------------------------------------------------------|
E|---------------------------------------------------------------------------|

then repeat intro - 1st part

(next part has already been posted)

then repeat intro - 2nd part

(next part has already been posted)

then repeat intro - 1st part

(next part is already posted)

then repeat intro - 2nd part

bridge

e|----------------------------------13---------------------------------------|
B|--11----11--13--11------11----11-----11------------------------------------|
G|-----10-------------10-----10------------10--(x12)-------------------------|
D|---------------------------------------------------------------------------|
A|---------------------------------------------------------------------------|
E|---------------------------------------------------------------------------|

then repeat intro - 2nd part

As i said, it's not all perfect but it is hard to hear. Most of the 2nd guitar
parts have already been posted so this is what i could work out for the rest of
it.





Ваше мнение



Капча