-------------------------------------------------------------------------------
STILL - Rufio
-------------------------------------------------------------------------------
By: David (still a damn newbie even tho registered on jan 2nd!) o well here yet another tab, damn tired...
~ - let ring out
PM... - palm mute
p - pull off
h - hammer on
Intro: Guitar 1
e|---------------------------------------------------------------------------|
B|---------------------------------------------------------------------------|
G|------------11~--11-13-14--16~---------------------------------------------|
D|7~-2-2--2~---x----x--x--x---x----------------------------------------------|
A|7~-2-2--2~---9~---9-11-12--14~---------------------------------------------|
E|5~-0-0--0~-----------------------------------------------------------------|
PM.
Intro Cont'd: Guitar 1 (2x)
e|---------------------------------------------------------------------------|
B|---------------------------------------------------------------------------|
G|--------------------------------7-7-7-7-7-7-7-7-7-7-7-7-7-7-7-7------------|
D|4-4-4-4-4-4-4-4-2-2-2-2-2-2-2-2-7-7-7-7-7-7-7-7-7-7-7-7-7-7-7-7------------|
A|4-4-4-4-4-4-4-4-2-2-2-2-2-2-2-2-5-5-5-5-5-5-5-5-5-5-5-5-5-5-5-5------------|
E|2-2-2-2-2-2-2-2-0-0-0-0-0-0-0-0--------------------------------------------|
Intro: Guitar 2
e|---------------------------------------------------------------------------|
B|---------------------------------------------------------------------------|
G|----------7~---7~----------------------------------------------------------|
D|7~---2~---7~---7~----------------------------------------------------------|
A|7~---2~---5~---5~----------------------------------------------------------|
E|5~---0~--------------------------------------------------------------------|
Intro Cont'd: Guitar 2
e|---------------------------------------------------------------------------|
B|---------------------------------------------------------------------------|
G|------------6-6-9---------6-6-------------6-6-9---------6-6-------------6-6|
D|----7-7-9-9-------7-7-9-9---------7-7-9-9-------7-7-9-9---------7-7-9-9----|
A|0-0---------------------------7-7---------------------------5-5------------|
E|---------------------------------------------------------------------------|
Intro Cont'd: Guitar 2 End of Intro: Guitar 2
e|----------------------------|----------------------------------------------|
B|----------------------------|----------------------------------------------|
G|------------6-6-9-----6h7-6-|------------6-6-9~----------------------------|
D|----7-7-9-9-------7-7-------|----7-7-9-9-----------------------------------|
A|5-5-------------------------|5-5-------------------------------------------|
E|----------------------------|----------------------------------------------|
Verse: Guitar 1 (2x)
e|---------------------------------------------------------------------------|
B|---------------------------------------------------------------------------|
G|------------------------7-7-7-9-9-9-11-11-11-14-14-14----------------------|
D|4-4-4-4-4-4-2-2-2-2-2-2-x-x-x-x-x-x--x--x--x--x--x--x-4-4-4-4-4-4-2-2-2-2-2|
A|4-4-4-4-4-4-2-2-2-2-2-2-5-5-5-7-7-7--9--9--9-12-12-12-4-4-4-4-4-4-2-2-2-2-2|
E|2-2-2-2-2-2-0-0-0-0-0-0-------------------------------2-2-2-2-2-2-0-0-0-0-0|
Verse Cont'd: Guitar 1
e|---------------------------------------------------------------------------|
B|---------------------------------------------------------------------------|
G|7-7--7-7-7--7-7-7--7-7-7--7------------------------------------------------|
D|7-7--7-7-7--7-7-7--7-7-7--7------------------------------------------------|
A|5-5--5-5-5--5-5-5--5-5-5--5------------------------------------------------|
E|---------------------------------------------------------------------------|
PM.........................
Verse: Guitar 2 (2x)
e|---------------------------------------------------------------------------|
B|-------5-------5---------------------------5-------5-----------------------|
G|-----------------------6---------6-------------------------6---------6-----|
D|-------------------------7---------7-------------------------7---------7---|
A|7-7-7----7-7-7---5-5-5-----5-5-5-----7-7-7---7-7-7---5-5-5-----5-5-5-------|
E|---------------------------------------------------------------------------|
PM... PM... PM....................... PM... PM.................
Pre-Chorus: Guitar 1
e|---------------------------------------------------------------------------|
B|---------------------------------------------------------------------------|
G|7-7-7-7-7-6-6-6-6-6-6-6-6-6-6-----------7-7-7-7-7-6-6-6-6-6-6-6-6-6-6------|
D|x-x-x-x-x-x-x-x-x-x-x-x-x-x-x-7-7-7-7-7-x-x-x-x-x-x-x-x-x-x-x-x-x-x-x-7-7-7|
A|5-5-5-5-5-4-4-4-4-4-4-4-4-4-4-x-x-x-x-x-5-5-5-5-5-4-4-4-4-4-4-4-4-4-4-x-x-x|
E|------------------------------5-5-5-5-5-------------------------------5-5-5|
Pre-Chorus Cont'd: Guitar 1
e|---------------------------------------------------------------------------|
B|---------------------------------------------------------------------------|
G|7-7-7-7-7-7-9-9-9-9-9-9-11-11-11-11-11-11-9-9-9-9-9-9-7~--9-7-6-4~-6-4-----|
D|x-x-x-x-x-x-x-x-x-x-x-x--x--x--x--x--x--x-x-x-x-x-x-x-x---x-x-x-x--x-x-----|
A|5-5-5-5-5-5-7-7-7-7-7-7--9--9--9--9--9--9-7-7-7-7-7-7-5~--7-5-4-2~-4-2-----|
E|---------------------------------------------------------------------------|
Pre-Chorus: Guitar 2
e|---------------------------------------------------------------------------|
B|---------------------------------------------------------------------------|
G|11-11-11-11-11-11-13-13-13-13-13-13-9-9-9-9-9-9-9-9-9-9-9-9-11-11-11-11-11-|
D|-x--x--x--x--x--x--x--x--x--x--x--x-x-x-x-x-x-x-x-x-x-x-x-x--x--x--x--x--x-|
A|-9--9--9--9--9--9-11-11-11-11-11-11-7-7-7-7-7-7-7-7-7-7-7-7--9--9--9--9--9-|
E|---------------------------------------------------------------------------|
Pre-Chorus Cont'd: Guitar 2
e|---------------------------------------------------------------------------|
B|---------------------------------------------------------------------------|
G|13-13-13-13-13-13-9-9-9-9-9-9-9-9-9-9-9-9-11-11-11-11-11-11-13-13-13-13-13-|
D|-x--x--x--x--x--x-x-x-x-x-x-x-x-x-x-x-x-x--x--x--x--x--x--x--x--x--x--x--x-|
A|11-11-11-11-11-11-7-7-7-7-7-7-7-7-7-7-7-7--9--9--9--9--9--9-11-11-11-11-11-|
E|---------------------------------------------------------------------------|
Pre-Chorus Cont'd: Guitar 2
e|---------------------------------------------------------------------------|
B|---------------------------------------------------------------------------|
G|9-9-9-9-9-9-9-9-9-9-9-9-11-11-11-11-11-11-11-11-11-11-9-9-9-9-9-9-9-9-9-9--|
D|x-x-x-x-x-x-x-x-x-x-x-x--x--x--x--x--x--x--x--x--x--x-x-x-x-x-x-x-x-x-x-x--|
A|7-7-7-7-7-7-7-7-7-7-7-7--9--9--9--9--9--9--9--9--9--9-7-7-7-7-7-7-7-7-7-7--|
E|---------------------------------------------------------------------------|
Chorus: Guitar 1
e|---------------------------------------------------------------------------|
B|---------------------------------------------------------------------------|
G|----------------7-7-7-7-7-7-7-7--------------------------------------------|
D|7-7-7-7-7-7-7-7-7-7-7-7-7-7-7-7-7-7-7-7-7-7-7-7-----7-----7---7-----7-----7|
A|7-7-7-7-7-7-7-7-5-5-5-5-5-5-5-5-7-7-7-7-7-7-7-7-5-5---5-5---5---7-7---7-7--|
E|5-5-5-5-5-5-5-5-----------------5-5-5-5-5-5-5-5----------------------------|
PM. PM. PM PM. PM.
Chorus Cont'd: Guitar 1
e|---------------------------------------------------------------------------|
B|---------------------------------------------------------------------------|
G|----------------------------7-7-7-7-7-7-7-7-7-7-7-7------------------------|
D|--7-4-4-4-4-4-4-4-4-4-4-4-4-7-7-7-7-7-7-7-7-7-7-7-7-4-4-4-4-4-4-4-4-4-4-4-4|
A|7---4-4-4-4-4-4-4-4-4-4-4-4-5-5-5-5-5-5-5-5-5-5-5-5-4-4-4-4-4-4-4-4-4-4-4-4|
E|----2-2-2-2-2-2-2-2-2-2-2-2-------------------------2-2-2-2-2-2-2-2-2-2-2-2|
PM PM. PM. PM. PM. PM. PM. PM. PM. PM. PM. PM. PM.
Chorus Cont'd: Guitar 1
e|---------------------------------------------------------------------------|
B|---------------------------------------------------------------------------|
G|7~--9~---------------------------------------------------------------------|
D|x---x----------------------------------------------------------------------|
A|5~--7~---------------------------------------------------------------------|
E|---------------------------------------------------------------------------|
Chorus: Guitar 2
e|---------------------------------------------------------------------------|
B|---------------------------------------------------------------------------|
G|6-6-6-6-6-6-6-6-11-11-11-11-11-11-11-11-6-6-6-6-6-6-6-6-11-11-11-11-11-11--|
D|x-x-x-x-x-x-x-x--x--x--x--x--x--x--x--x-x-x-x-x-x-x-x-x--x--x--x--x--x--x--|
A|4-4-4-4-4-4-4-4--9--9--9--9--9--9--9--9-4-4-4-4-4-4-4-4--9--9--9--9--9--9--|
E|---------------------------------------------------------------------------|
Chorus Cont'd: Guitar 2
e|9----10p9----9----10p9----9----10p9----9----10p9----9----10p9--------------|
B|--10------10---10------10---10------10---10------10---10------10-----------|
G|------------------------------------------------------------------7--9~----|
D|------------------------------------------------------------------x--x-----|
A|------------------------------------------------------------------5--7~----|
E|---------------------------------------------------------------------------|
Repeat Cool Intro Riff
Repeat Verse
Repeat Pre-Chorus
Repeat Chorus
Bridge: Guitar 1
e|---------------------------------------------------------------------------|
B|---------------------------------------------------------------------------|
G|------7-7-7-7-7-9-9-9-9-9-------7-7-7-7-7-9-9-9-9-9-------7-7-7-7-7-9-9-9-9|
D|----7-7-7-7-7-7-9-9-9-9-9-----7-7-7-7-7-7-9-9-9-9-9-----7-7-7-7-7-7-9-9-9-9|
A|------5-5-5-5-5-7-7-7-7-7-------5-5-5-5-5-7-7-7-7-7-------5-5-5-5-5-7-7-7-7|
E|4-5-----------------------4-5-----------------------4-5--------------------|
PM. PM. PM.
Bridge Cont'd: Guitar 1
e|---------------------------------------------------------------------------|
B|---------------------------------------------------------------------------|
G|------7-7-7-7-7-7-7-7-7-7-9-9-9-9-9----------------------------------------|
D|----7-7-7-7-7-7-7-7-7-7-7-9-9-9-9-9----------------------------------------|
A|------5-5-5-5-5-5-5-5-5-5-7-7-7-7-7----------------------------------------|
E|4-5---------------------------------Pickslide------------------------------|
PM.
Bridge: Guitar 2
e|---------------------------------------------------------------------------|
B|10-9---------------------------------10-9----------------------------------|
G|-----9-14-14-14-14-14-13-13-13-13-13------9-14-14-14-14-14-13-13-13-13-13--|
D|--------x--x--x--x--x--x--x--x--x--x---------x--x--x--x--x--x--x--x--x--x--|
A|-------12-12-12-12-12-11-11-11-11-11--------12-12-12-12-12-11-11-11-11-11--|
E|---------------------------------------------------------------------------|
Bridge Cont'd: Guitar 2
e|---------------------------------------------------------------------------|
B|10-9---------------------------------10-9----------------------------------|
G|-----9-14-14-14-14-14-13-13-13-13-13------9-14-14-14-14-14-14-14-14-14-14--|
D|--------x--x--x--x--x--x--x--x--x--x---------x--x--x--x--x--x--x--x--x--x--|
A|-------12-12-12-12-12-11-11-11-11-11--------12-12-12-12-12-12-12-12-12-12--|
E|---------------------------------------------------------------------------|
Bridge Cont'd: Guitar 2
e|---------------------------------------------------------------------------|
B|---------------------------------------------------------------------------|
G|13-13-13-13----------------------------------------------------------------|
D|-x--x--x--x----------------------------------------------------------------|
A|11-11-11-11----------------------------------------------------------------|
E|------------Pickslide------------------------------------------------------|
Repeat Chorus
Outro: Guitar 1
e|---------------------------------------------------------------------------|
B|---------------------------------------------------------------------------|
G|------------------------7-7-7-7-7-7-7-7-7-7-7-7----------------------------|
D|4-4-4-4-4-4-4-4-4-4-4-4-7-7-7-7-7-7-7-7-7-7-7-7-4-4-4-4-4-4-4-4-4-4-4-4----|
A|4-4-4-4-4-4-4-4-4-4-4-4-5-5-5-5-5-5-5-5-5-5-5-5-4-4-4-4-4-4-4-4-4-4-4-4----|
E|2-2-2-2-2-2-2-2-2-2-2-2-------------------------2-2-2-2-2-2-2-2-2-2-2-2----|
PM. PM. PM. PM. PM. PM. PM. PM. PM. PM. PM. PM.
Outro Cont'd: Guitar 1
e|---------------------------------------------------------------------------|
B|---------------------------------------------------------------------------|
G|7---9----------------------------------------------------------------------|
D|x---x---7~-----------------------------------------------------------------|
A|5---7---7~-----------------------------------------------------------------|
E|--------5~-----------------------------------------------------------------|
Outro: Guitar 2 (Repeat first part lots of times) Ending:
e|9----10p9---------------------------------------|--------------------------|
B|--10------10------------------------------------|--------------------------|
G|------------------------------------------------|--7---9---6~--------------|
D|------------------------------------------------|--x---x---x---------------|
A|------------------------------------------------|--5---7---4~--------------|
E|------------------------------------------------|--------------------------|





Ваше мнение



Капча