Song:Set it off
Artist:Rufio
Tabbed by:Drй

X=palm mute
/=slide down

Intro
(feedback)
e|----------------------------------------------
B|----------------------------------------------
G|----------------------------------------------
D|------------7-7xxx7-7xxx------------7-7xxx7-7-
A|4-4xxx4-4xxx5-5xxx5-5xxx4-4xxx4-4xxx5-5xxx5-5-
E|2-2xxx2-2xxx------------2-2xxx2-2xxx----------

e|7-5-4-5-4-0---
B|------------0-
G|--------------
D|--------------
A|--------------
E|--------------

Verse

e|-------------------------------------------------------0---
B|----------------------------------------------10-9---9---0-
G|6-6-666-6-6-666------------------------------------11------
D|4-4-444-4-4-444--------------------------------------------
A|---------------6-6-666-6-6-666-7-7-777-7-7-777-------------
E|---------------4-4-444-4-4-444-5-5-555-5-5-555-------------

Pre-chorus

e|----------------------------------
B|10---10-12-10-12-14-12-10-12-10-9-
G|---9------------------------------
D|----------------------------------
A|----------------------------------
E|----------------------------------

e|-------------------------------
B|10---10-12-10-14-15-14-12-10-9-
G|---9---------------------------
D|-------------------------------
A|-------------------------------
E|-------------------------------

e|----------------------------------
B|10---10-12-10-12-14-12-10-12-10-9-
G|---9------------------------------
D|----------------------------------
A|----------------------------------
E|----------------------------------

e|-----------------
B|10---10-12-10-14-
G|---9-------------
D|-----------------
A|-----------------
E|-----------------

Chorus

e|------------------------------------------------------------
B|------------------------------------------------------------
G|------------------------------------------------------------
D|---------------7-7-777-7-7-777------------------------------
A|4-4-444-4-4-4445-5-555-5-5-5557-7-777-7-7-7776-6-666-6-6-666
E|2-2-222-2-2-222---------------5-5-555-5-5-5554-4-444-4-4-444

Bridge

e|-----|----------
B|-----|----------
G|-----|----------
D|7---9|7-9-------
A|5-7-7|5-7-4-4-44
E|--5--|----2-2-22
X7

End

e|------------------------------
B|--------9-9-10-10xxxx10-------
G|11xxxx11---------------9-9-11/
D|------------------------------
A|------------------------------
E|------------------------------

Order

Introx2
Versex2
Pre-chorus
Chorusx2
Intro
Verse
Verse(palm mute)
Pre-chorus
Chorusx2
Bridge
Chorusx2
End





Ваше мнение



Капча