Rufio - Road to Recovery (Intro)

Tabbed by Daniel Smith

Hey I didn’t see this on anyone else’s tab so I added it here,
it’s the little bit where there is only one guitar.

[-----------------------------------------------------------]
[-----------------------------------------------------------]
[-----------------------------------------------------------]
[-2---2-2---2-3---3-3---3-----------------------------------]
[---3-----3-----3-----3-----(x2)-3-3-2-2-------3-3-2-2------]
[----------------------------------------3-3-3--------3-3-3-]

over here on the second time you do the first thing up top go:

[----------------------------------------]
[----------------------------------------]
[----------------------------------------]
[----------------------------------------]
[-3-2-0----------------------------------]
[-------3-and then into--3-3-2-2---------]
[--------------------------------3-3-3...]
It sounds right with the beginning bit.





Ваше мнение



Капча