RUFiO ? One Slow Dance Intro
Tabbed by C.J.
E-----------------------------------------------------------------------------------------------------|
B-----------------------------------------------------------------------------------------------------|
G-----------------------------------------------------------------------------------------------------|
D--------------------------------------------2---0----------------------------------------------------|
A--0-----0---2---4----2----0--------0------------4----2----4----0-----0----2----4----2---0------------|
E---------------------------------4----------------------------------------------------------------4--|
E-------------------------------|
B-------------------------------|
G-------------------------------|
D-------------------------------|
A---0-------------2-------------|
E---------4---4-----------------|
If you wanna cry to me about any change go head [email protected]





Ваше мнение



Капча