This is the best tab your ever gonna find on the internet, unless the band posts
a tab. I aligned the guitar 1 and 2 parts together so can play with it together.
Im sure its 99.9% correct or at least a 99.0%. Enjoy!
Submitted by Alvin
/ = slide
~ = let ring
* = palm mute
p = pull off
h = hammer on
x = deadnote
x
x= pickslide
x

Intro: guitar 1
e|-----------------------------------------------------------------------------|
B|-----------------------------------------------------------------------------|
G|-12~--12~--10~----------------12~--12~--10~----------------------------------|
D|--x----x----x----10-------10---x----x----x----10------10---------------------|
A|-10~--10~---8~--8--8-10-8-----10~--10~---8~--8--8-10-8-----------------------|
E|-----------------------------------------------------------------------------|
| |
| |
|Intro: guitar 2 |
e|-----------------------------------------------------------------------------|
B|-----------------------------------------------------------------------------|
G|-8~----------------------------8~--------------------------------------------|
D|-8~----5~----3~----------------8~---5~---3~--8-8-8--8-8-8--8-8-8--8-8-8------|
A|-6~----5~----3~----8-----8-----6~---5~---3~--8-8-8--8-8-8--8-8-8--8-8-8------|
E|-------3~----1~--6---6-5---5--------3~---1~--6-6-6--6-6-6--5-5-5--5-5-5------|
* * * * * * * *
Bridge: guitar 1
e|-------------------------------------------------------------13-11-10--------|
B|--------------------------------------------------8-10-11-11----------11/13--|
G|-----10-8-7---------10-8-7-----10-8-7------7-8-10----------------------------|
D|-8-8--------8/10-10--------8-8--------8/10-----------------------------------|
A|-----------------------------------------------------------------------------|
E|-----------------------------------------------------------------------------|
| |
| |
|Bridge: guitar 2 (fast strumming) |
e|-----------------------------------------------------------------------------|
B|-----------------------------------------------------------------------------|
G|---------------------------3----------8--------------------------------------|
D|-5-----------3-------------3-x16------8-x16-------------5--------------3-----|
A|-5-x16-------3-x16---------1----------6-----------------5-x16----------3-x16-|
E|-3-----------1------------------------------------------3--------------1-----|
Bridge cont'd: guitar 1
e|----13-11-10-------13-11-10--------------------------------------------------|
B|-13----------11-11----------11/13-11-10-11-10-------------------------------|
G|-----------------------------------------------------------------------------|
D|-----------------------------------------------------------------------------|
A|-----------------------------------------------------------------------------|
E|-----------------------------------------------------------------------------|
| |
| |
|Bridge cont'd: guitar 2 |
e|-----------------------------------------------------------------------------|
B|-----------------------------------------------------------------------------|
G|--------------3-------------8------------------------------------------------|
D|--------------3-x16---------8-x16--------------------------------------------|
A|--------------1-------------6------------------------------------------------|
E|-----------------------------------------------------------------------------|
Verse x2 all together: guitar 1
e|-----------------------------------------------------------------------------|
B|-----------------------------------------------------------------------------|
G|-----7h10-----7-----7h10-----7-----7h10-----7-----7h10-----7-----7h10------7-|
D|-8-8------8-8---8-8------8-8---8-8------8-8---8-8------8-8---8-8-------8-8---|
A|-----------------------------------------------------------------------------|
E|-----------------------------------------------------------------------------|
| * * * * * * * * * * * * * * * * * * * * |
| |
|Verse x2 all together: guitar 2 (fast strumming) |
e|-----------------------------------------------------------------------------|
B|-----------------------------------------------------------------------------|
G|-------------------------------8---------------------------------------------|
D|-5-----------------------------8-x16-------------------------8---------------|
A|-5-x16-------------------------6-----------------------------8-x16-----------|
E|-3-----------------------------------------------------------6---------------|
Verse cont'd: guitar 1
e|-----------------------------------------------------------------------------|
B|-----------------------------------------------------------------------------|
G|----7h10-----7-----5h7-----7-----5h7-----7-----------------------------------|
D|8-8------8-8---7-7-----7-7---7-7-----7-7-------------------------------------|
A|-----------------------------------------------------------------------------|
E|-----------------------------------------------------------------------------|
|* * * * * * * * * * * * |
| |
|Verse cont'd: guitar 2 |
e|-----------------------------------------------------------------------------|
B|-----------------------------------------------------------------------------|
G|-----------------------------------------------------------------------------|
D|---------------3-------------------------------------------------------------|
A|---------------3-x16---------------------------------------------------------|
E|---------------1-------------------------------------------------------------|
Prechorus x3: guitar 1 (fast strumming)
e|-----------------------------------------------------------------------------|
B|-----------------------------------------------------------------------------|
G|-7-7-555-3-3-555-7-7--7-7-7--7-7-7--7-7-7------------------------------------|
D|-x-x-xxx-x-x-xxx-x-x--x-x-x--x-x-x--x-x-x------------------------------------|
A|-5-5-333-1-1-333-5-5--5-5-5--5-5-5--5-5-5------------------------------------|
E|-----------------------------------------------------------------------------|
| * * * * * * |
| |
|Prechorus x3: guitar 2 (fast strumming) |
e|-----------------------------------------------------------------------------|
B|-----------------------------------------------------------------------------|
G|-----------------------------------------------------------------------------|
D|-5-------8-------8-8--8-8-8--8-8-8--8-8-8------------------------------------|
A|-5-x8----8-x8----8-8--8-8-8--8-8-8--8-8-8------------------------------------|
E|-3-------5-------6-6--6-6-6--6-6-6--6-6-6------------------------------------|
* * * * * *
Prechorus cont'd: guitar 1 (fast strumming)
e|-----------------------------------------------------------------------------|
B|-----------------------------------------------------------------------------|
G|-15------14------------------------------------------------------------------|
D|--x-x16---x-x16--------------------------------------------------------------|
A|-13------12------------------------------------------------------------------|
E|-----------------------------------------------------------------------------|
| |
| |
|Prechorus cont'd: guitar 2 (fast strumming) |
e|-----------------------------------------------------------------------------|
B|-----------------------------------------------------------------------------|
G|-8---------------------------------------------------------------------------|
D|-8-x16----3------------------------------------------------------------------|
A|-6--------3-x16--------------------------------------------------------------|
E|----------1------------------------------------------------------------------|
Chorus: guitar 1 (fast strumming)
e|-----------------------------------------------------------------------------|
B|-----------------------------------------------------------------------------|
G|-12------------10------------------12-------------10-----------------12~-----|
D|--x-x32---------x-x16--10------10---x-x32----------x-x16--10------10--x------|
A|-10-------------8-----8--8-10-8----10--------------8-----8--8-10-8---10~-----|
E|-----------------------------------------------------------------------------|
| |
| |
|Chorus: guitar 2 (fast strumming) |
e|-----------------------------------------------------------------------------|
B|-----------------------------------------------------------------------------|
G|-8----------------------------------8---------------------------------8~-----|
D|-8-x16---5------3-----8-------------8-x16---5------3------------------8~-----|
A|-6-------5-x16--3x16--8-x16---------6-------5-x16--3x16----8-----8----6~-----|
E|---------3------1-----6---------------------3------1-----6---6-5---5---------|
Bridge 2: guitar 1
e|-----------------------------------------------------------------------------|
B|-----------------------------------------------------------------------------|
G|-----10-8-7---------10-8-7-----10-8-7----------------------------------------|
D|-8-8--------8/10-10--------8-8--------8/10-8-7-8-7-8------------------------|
A|-----------------------------------------------------------------------------|
E|-----------------------------------------------------------------------------|
| |
| |
|Bridge 2: guitar 2 (fast strumming) |
e|-----------------------------------------------------------------------------|
B|-----------------------------------------------------------------------------|
G|---------------------------3----------8--------------------------------------|
D|-5-----------3-------------3-x16------8-x16---------5-----------------------|
A|-5-x16-------3-x16---------1----------6-------------5-----------------------|
E|-3-----------1--------------------------------------3-----------------------|
(Bass solo)
Verse 2: guitar 1
e|-----------------------------------------------------------------------------|
B|-----------------------------------------------------------------------------|
G|-x-----7h10-----7-----7h10-----7-----7h10-----7-----7h10-----7-----7h10-----|
D|-x-8-8------8-8---8-8------8-8---8-8------8-8---8-8------8-8---8-8------8-8-|
A|-x--------------------------------------------------------------------------|
E|-----------------------------------------------------------------------------|
| * * * * * * * * * * * * * * * * * * * * |
| |
|Verse 2: guitar 2 (fast strumming) |
e|-----------------------------------------------------------------------------|
B|-----------------------------------------------------------------------------|
G|----------------------------------8------------------------------------------|
D|-x-5-----------------------------8-x16--------------------------8-----------|
A|-x-5-x16-------------------------6------------------------------8-x16-------|
E|-x-3------------------------------------------------------------6-----------|
Verse 2 cont'd: guitar 1
e|-----------------------------------------------------------------------------|
B|-----------------------------------------------------------------------------|
G|----7h10-----7-----5h7-----7-----5h7-----7-----------------------------------|
D|8-8------8-8---7-7-----7-7---7-7-----7-7-------------------------------------|
A|-----------------------------------------------------------------------------|
E|-----------------------------------------------------------------------------|
|* * * * * * * * * * * * |
| |
|Verse 2 cont'd: guitar 2 |
e|-----------------------------------------------------------------------------|
B|-----------------------------------------------------------------------------|
G|-----------------------------------------------------------------------------|
D|---------------3-------------------------------------------------------------|
A|---------------3-x16---------------------------------------------------------|
E|---------------1-------------------------------------------------------------|

Prechorus 2 x3: guitar 1 (fast strumming)
e|-----------------------------------------------------------------------------|
B|-----------------------------------------------------------------------------|
G|-7-7-555-3-3-555-7-7--7-7-7--7-7-7--7-7-7------------------------------------|
D|-x-x-xxx-x-x-xxx-x-x--x-x-x--x-x-x--x-x-x------------------------------------|
A|-5-5-333-1-1-333-5-5--5-5-5--5-5-5--5-5-5------------------------------------|
E|-----------------------------------------------------------------------------|
| * * * * * * |
| |
|Prechorus 2 x3: guitar 2 (fast strumming) |
e|-----------------------------------------------------------------------------|
B|-----------------------------------------------------------------------------|
G|-----------------------------------------------------------------------------|
D|-5-------8-------8-8--8-8-8--8-8-8--8-8-8------------------------------------|
A|-5-x8----8-x8----8-8--8-8-8--8-8-8--8-8-8------------------------------------|
E|-3-------5-------6-6--6-6-6--6-6-6--6-6-6------------------------------------|
* * * * * *
Prechorus 2 cont'd: guitar 1 (fast strumming)
e|-----------------------------------------------------------------------------|
B|-----------------------------------------------------------------------------|
G|-15------14-----x------------------------------------------------------------|
D|--x-x16---x-x8--x-x8---------------------------------------------------------|
A|-13------12-----x------------------------------------------------------------|
E|-----------------------------------------------------------------------------|
| |
| |
|Prechorus 2 cont'd: guitar 2 (fast strumming) |
e|-----------------------------------------------------------------------------|
B|-----------------------------------------------------------------------------|
G|-8---------------------------------------------------------------------------|
D|-8-x16----3-----x------------------------------------------------------------|
A|-6--------3-x8--x-x8---------------------------------------------------------|
E|----------1-----x------------------------------------------------------------|

Chorus 2: guitar 1 (fast strumming)
e|-----------------------------------------------------------------------------|
B|-----------------------------------------------------------------------------|
G|-12------------10------------------12-------------10-----------------12~-----|
D|--x-x32---------x-x16--10------10---x-x32----------x-x16--10------10--x------|
A|-10-------------8-----8--8-10-8----10--------------8-----8--8-10-8---10~-----|
E|-----------------------------------------------------------------------------|
| |
| |
|Chorus 2: guitar 2 (fast strumming) |
e|-----------------------------------------------------------------------------|
B|-----------------------------------------------------------------------------|
G|-8----------------------------------8---------------------------------8~-----|
D|-8-x16---5------3-----8-------------8-x16---5------3------------------8~-----|
A|-6-------5-x16--3x16--8-x16---------6-------5-x16--3x16----8-----8----6~-----|
E|---------3------1-----6---------------------3------1-----6---6-5---5---------|

Chorus 2 cont'd: guitar 1
e|-----------------------------------------------------------------------------|
B|-----------------------------------------------------------------------------|
G|-12-12--10~---------------12~--12-12--10~------------------------------------|
D|--x--x---x----10------10---x----x--x---x----10-------------------------------|
A|-10-10---8~--8--8-10-8----10~--10-10---8~--8--8-10---------------------------|
E|-----------------------------------------------------------------------------|
| |
| |
|Chorus 2 cont'd: guitar 2 |
e|-----------------------------------------------------------------------------|
B|-----------------------------------------------------------------------------|
G|--5-5----------------------8~------------------------------------------------|
D|--5-5----3~----------------8~---5-5----3~------------------------------------|
A|--3-3----3~----8-----8-----6~---5-5----3~----8-------------------------------|
E|---------1~--6---6-5---5--------3-3----1~--6---6-5---------------------------|
Bridge 3/Solo: guitar 1
e|-------------------------------------------------------11-----10-----11------|
B|--------------------------------------------------8-10---11-11--11-11--11-11-|
G|-----10-8-7---------10-8-7-----10-8-7------7-8-10----------------------------|
D|-8-8--------8/10-10--------8-8--------8/10-----------------------------------|
A|-----------------------------------------------------------------------------|
E|-----------------------------------------------------------------------------|
| * * * * * * |
| |
|Bridge 3/Solo: guitar 2 (fast strumming) |
e|-----------------------------------------------------------------------------|
B|-----------------------------------------------------------------------------|
G|-------------8---------------------------------------------------------------|
D|-5-----------8-x16----------8-----------3---------------5--------------------|
A|-5-x16-------6--------------8-x16-------3-x16-----------5-x16----------------|
E|-3--------------------------6-----------1---------------3--------------------|
Bridge 3/Solo cont'd: guitar 1 (really fast picking)
e|-10-----13-11-10-11-----10-----11-----10------13-11-10-11-----10-----11------|
B|---11-11-----------11-11--11-11--11-11---11-11-----------11-11--11-11--11-11-|
G|-----------------------------------------------------------------------------|
D|-----------------------------------------------------------------------------|
A|-----------------------------------------------------------------------------|
E|-----------------------------------------------------------------------------|
| * * * * * * * * * * * * * * * * |
| |
|Bridge 3/Solo cont'd: guitar 2 (fast strumming) |
e|-----------------------------------------------------------------------------|
B|-----------------------------------------------------------------------------|
G|------------------8----------------------------------------------------------|
D|------------------8-x16----------------------------------8-------------------|
A|------------------6--------------------------------------8-x16---------------|
E|---------------------------------------------------------6-------------------|
Bridge 3/Solo cont'd: guitar 1
e|10-----13-11-10----------------------------13-11-10--10-10/11-10-------------|
B|--11-11--------11/13-11-10-11--11-11-11-11~--------11-----------11--11-11-11-|
G|-----------------------------------------------------------------------------|
D|-----------------------------------------------------------------------------|
A|-----------------------------------------------------------------------------|
E|-----------------------------------------------------------------------------|
| * * * * * * * * |
| |
|Bridge 3/Solo cont'd: guitar 2 |
e|-----------------------------------------------------------------------------|
B|-----------------------------------------------------------------------------|
G|----------------------------------------------------8------------------------|
D|----------------3---------------5--5--5--5~---------8-x16------------8--8--8-|
A|----------------3-x16-----------5--5--5--5~---------6----------------8--8--8-|
E|----------------1---------------3--3--3--3~--------------------------6--6--6-|
* * * * * * *
Bridge 3/Solo cont'd: guitar 1
e|---13-11-10----------------------------13-11-10--10-10/11-10-----------------|
B|11~--------11/13-11-10-11--11-11-11-11~--------11-----------11--11-11-11-11~-|
G|-----------------------------------------------------------------------------|
D|-----------------------------------------------------------------------------|
A|-----------------------------------------------------------------------------|
E|-----------------------------------------------------------------------------|
| * * * * * * * * |
| |
|Bridge 3/Solo cont'd: guitar 2 |
e|-----------------------------------------------------------------------------|
B|-----------------------------------------------------------------------------|
G|-----------10-----------------------------------8----------------------------|
D|8~---------10-x16-----------5--5--5--5~---------8-x16------------8--8--8--8~-|
A|8~----------8---------------5--5--5--5~---------6----------------8--8--8--8~-|
E|6~--------------------------3--3--3--3~--------------------------6--6--6--6~-|
* * * * * *
Bridge 3/Solo cont'd: guitar 1
e|13-11-10---------------------------------------------------------------------|
B|--------11/13-11-10-11~----------11-----------------------------------------|
G|-----------------------------------------------------------------------------|
D|-----------------------------------------------------------------------------|
A|-----------------------------------------------------------------------------|
E|-----------------------------------------------------------------------------|
| |
| |
|Bridge 3/Solo cont'd: guitar 2 |
e|-----------------------------------------------------------------------------|
B|-----------------------------------------------------------------------------|
G|---------10----8-------------------------------------------------------------|
D|---------10-x8-8-x8--5~-----------5-----------------------------------------|
A|----------8----6-----5~-5-5/6-5---5-----------------------------------------|
E|---------------------3~---------3-3-----------------------------------------|
Yeah, it think i did good on this one, its good.





Ваше мнение



Капча