Rufio - Dipshit

Ahh i didnt feel like tabbing out the whole song, heres the intro :)

e|-----------------------------------------------------------------------|
B|-----------------------------------------------------------------------|
G|-7-7--------------6h7p6h7p---------------------------------------------|
D|-7-7--5-6-7-7-7-7---------7-9-9-5-6-7-7--4-5-5-5-----------------------|
A|-5-5----------7-7-----------9-9----------4-5-5-5-----------------------|
E|--------------5-5-----------7-7----------2-3-3-3-----------------------|

e|-----------------------------------------------------------------------|
B|-----------------------------------------------------------------------|
G|-7-7-7-----------------------------------------------------------------|
D|-7-7-7-5-------5-5-5-6-6-6--7-7-7--9-7---------------------------------|
A|-5-5-5-5-0-0-0---------------------9-7---------------------------------|
E|-------3---------------------------7-5---------------------------------|





Ваше мнение



Капча