From: Carol
Roxette: The Look
-----------------
Written by Per Gessle
Trans. Ben Sinclair ([email protected])
12/2/1995
e|-------------------------
B|-------------------------
G|------------------------- } riff 1
D|---7---5-4-4h5p4p0------- }
A|-0---0-------------0-----
E|-------------------------
e|-------------------------
B|-------------------------
G|------------------------- } riff 2
D|-----7---4-4h5p4p0------- }
A|-0-0---0-----------7-----
E|-------------------------
How it's played:
[riff 1]
1-2-3-4
[riff 1] [riff 2]
A
Walking like a man, hitting like a hammer,
she's a juvenile scam. Never was a quitter,
tasty like a raindrop, she's got the look.
Heavenly bound cause heaven's got a number
when she's spinning me around, kissing is a colour,
her loving is a wild dog, she's got the look.
[riff 2]
A A
She's got the look. She's got the look.
A
What in the world can make a brown-eyed girl turn blue.
A
When everything I'll ever do I'll do for you
G D
and I go: la la la la la she's got the look.
A
Fire in the ice,
naked to the T-bone is a lover's disguise.
Banging on the head drum,
shaking like a mad bull, she's got the look.
[riff 2]
A
Swaying to the band,
moving like a hammer, she's a miracle man.
Loving is the ocean,
kissing is the wet sand, she's got the look.
[riff 2]
[Chorus]
[riff 1] [riff 2]
Solo:
e|---------------------------------------------
B|-12----10----9---10-8---12----10----9---10---
G|----13----11---9-----------13----11---9------
D|---------------------------------------------
A|---------------------------------------------
E|---------------------------------------------
e----------------------------------------------
B----------------------------------------------
G----------------------------2-----------------
D------------2-------------2---2---------------
A----------2---2---0-0-0-0-------0-------------
E--0-0-0-0-------0-----------------------------
hold...
e--------------------------
B--12----10----9---10------
G-----13----11---9---------
D--------------------------
A--------------------------
E--------------------------
e----------------------------------------------
B----------------------------------------------
G----------------------------------------------
D----------------------------------------------
A----------------------------------------------
E--3-3-3-3-3-3-3-3-5-5-5-5-5-5-5-5-------------
e--------------------------
B--------------------------
G--------------------------
D----7---4-4h5p4p0---------
A--0---0-----------7-------
E--------------------------
e----------------------------------5-----------
B----------------------------------5-----------
G----------------------------------6-----------
D----------------------------------7-----------
A----------------------------------7-----------
E--3-3-3-3-3-3-3-3-5-5-5-5-5-5-5-5-5-----------
Walking like a man, hitting like a hammer,
she's a juvenile scam. Never was a quitter,
tasty like a raindrop, she's got the look.
And she goes: na na na na na na na na.
The rest of the song is just choruses and riff 2's as required.
The verses are mainly played on the bass, but a guitar can
play: A C G if you like.




Ваше мнение



Капча