KISS: ROOM SERVICE (from 2001) by Per Gessle & Jonas Isacsson.
F C G
e|------------------------------------------------------------------------
B|------------------------------------------------------------------------
G|------------------------------------------------------------------------
D|3-3-3-3---5-------------------------------------------------------------
A|--------3---------------------------------------------------------------
E|------------------012---3-33----3-33----3-33-----3-33-------------------
I'm feeling low, no place to go,
D
e|------------------------------------------------------------------------
B|------------------------------------------------------------------------
G|------------------------------------------------------------------------
D|------------------4--------7-4-------4-7-4----------------4-7-4---------
A|---------5---5-------------------5-5----------------5--5------------5-5-
E|------------------------------------------------------------------------
An' I'm thinkin' that I'm gonna scream, Becos' a hotel, all alone,
F C G C
e|------------------------------------------------------------------------
B|------------------------------------------------------------------------
G|------------------------------------------------------------------------
D|-3--2---0-3----3-3---3-------------5-5--------------------2--5---2------
A|------------------------------3--------0-1-2-----3----3-------------3-3-
E|------------------------------------------------------------------------
Is not a rock n roll star's dream, But just when I'm about
G D
e|------------------------------------------------------------------------
B|------------------------------------------------------------------------
G|------------------------------------------------------------------------
D|----------------5-5-------------5-5----------------4-7------4--------4--
A|-2-2--3-3--4--------7---------5-----7-----5----5-5--------------5-5-----
E|--------------------------6h7---------6h7-------------------------------
to shut the light, and go to bed, A lady calls, and asks if
e|------------------------------------------------------------------------
B|------------------------------------------------------------------------
G|-------------------------/7-7--5--4-------------------------------------
D|-7---4---5-5----3--2--0----------------7--------------------------------
A|------------------------------------------------------------------------
E|------------------------------------------------------------------------
I'm too tired, or if I'm just to dead for ...
Chorus:
e|------------------------------------------------------------------------
B|------------------------------------------------------------------------
G|------------------------------------------------------------------------
D|--------------5-5-----------------------------------5--5--5-------4/54/5
A|------- 5-7--------8/7-----5h7----------------5-7-----------------------
E|1----5-7--------------------------67--1----5-7--------------------------
Room service, Baby I could use-uh me, Room service, to do what you feel
e|------------------------------------------------------------------------
B|------------------------------------------------------------------------
G|------------------------------------------------------------------------
D|----------------5-5------------------------------3-3-----3---3----5-----
A|--------5-7--------------8/7-----5h7----------------------------3-------
E|1----5-7-----------------------------------6/7--------------------------
Room service, I take the pleasure with the pain, I can't say no
G
My plane's delayed, and I'm afraid
D
There gonna keep me waiting here 'till nine,
Then a stewardess in her tight blue dress said:
F C G
"I got some time"
C
But just when I'm about,
G
To grab my coat, and get my flight,
D
She says "Oh please", she's on her knees,
"Just one more time", so on my knees,
I get some ...
Chorus:
Riff:
G
In my home town, I'm hangin' 'round
D
With all the ladies making me feel good,
Then sweet sixteen, looking hot and mean said:
F C G
"I wish you would"
C
But just when I'm about,
G
To tell her "Yes, I think I'm ready"
D
I see her dad, he's getting mad,
and all the time, he knows that I'm
in need of ...
Chorus:
Chorus:
Chorus and fade.




Ваше мнение



Капча