Night Wing
Roxette - Night Wing (1982)
|--------1-0h1p0------------1----------0--------1-0h1p0-----------1---------0--|
|------3---------3------------3------1-------3---------3------------3-----1----|
|----2-------------2------3--------0-------2-------------2------3-------0------|
|--0-----------------0--0--------2-------0-----------------0--0-------2--------|
|------------------------------------------------------------------------------|
|------------------------------------------------------------------------------|
tell all the people...
|-------1---------------1---------------------------------------------|
|-----3---3-----------3---3-------------------------------------------|
|---3-------3-------3-------3-----------------------------------------|
|-------------3----------------5------------7---6---5-------6h7-6-----|
|-1-------------1-1------------5----------0---0---0---0-6h7-------7---|
|------------------------------3--------------------------------------|
|--------------------------------------------------------------|
|--------------------------------------------------------------|
|--7--7--7-7-/10-10-8-7-5---2-5-7--7--7-7-/10-10-9-7-5-2-5-----|
|--7--7--7-7-/10-10-9-7-5---2-5-7--7--7-7-/10-10-9-7-5-2-5-----|
|--5--5--5-5--/8--8-7-5-3---0-3-5--5--5-5--/8--8-7-5-3-0-3-----|
|--------------------------------------------------------------|
Aucoustic Solo:
|--------------------------------------------------------------------------|
|--------------3----------------5-6----------8-6-------5-6-8--6-5---------|
|----------2-------2-2---------7-----7---/7-5-----7----------------7-------|
|----2-3-5---5-------------------------7-----------------------------7/8-7-|
|-5------------------------------------------------------------------------|
|--------------------------------------------------------------------------|
|---------------------------------------------------------------8p10h8----|
|-----10-11-13-11-10--------------------------10-11-13-11-10-11--------11-|
|---10---------------12-10-12---------------------------------------------|
|-12--------------------------12--10-12----12-----------------------------|
|-------------------------------------------------------------------------|
|-------------------------------------------------------------------------|
|------------------/5---------------------5-6-5-----------------|
|----8-6-5h6p5--------8-6---------------8-------8---------------|
|--7-----------7-5--------7-----------7-----------7-5-----------|
|-----------------------------------------------------7/8-87---|
|---------------------------------------------------------------|
|---------------------------------------------------------------|
|----------------------------------------------------------------|
|--5-6-8-6-5-----------------------------------------------------|
|------------7-5-5-5/7-7------solo in E--------------------------|
|----------------------------------------------------------------|
|----------------------------------------------------------------|
|----------------------------------------------------------------|




Ваше мнение



Капча