Аккодды как у Тiкноmа, в предыдущей
версии, за что ему действительно «5»,
но вот табы там немного посложнее:
intro:
E------5-3-2-5---2---5-2-------
B----3---------3----3---5-3----
G--4---------------4-------4---
D-4----------------------------
A------------------------------
E------------------------------
E-----------------
B-----2-5-3-2-----
G-2-4---------4---
D-----------------
A-----------------
E-----------------
E------5-3-2-5---2---5-2-------
B----3---------3----3---5-3----
G--4---------------4-------4---
D-4----------------------------
A------------------------------
E------------------------------
E----------
B---3-5----
G-4--------
D----------
A----------
E---------- *
Hm G A Hm
I know there´s something in the wake of your smile.
G A Hm
I get a notion from the look in your eyes, yea.
G A Hm
You´ve built a love but that love falls apart.
G Em
Your little piece of heaven turns too dark.

Hm G D A
Listen to your heart when he´s calling for you.
Hm G D A
Listen to your heart there´s nothing else you can do.
D A G D
I don´t know where you´re going and I don´t know why,
Hm G A Hm
But listen to your heart before you tell him goodbye.

Sometimes you wonder if this fight is worthwhile.
The precious moments are all lost in the tide, yea.
They´re swept away and nothing is what is seems,
the feeling of belonging to your dreams.
Listen to your heart when he´s calling for you.
Listen to your heart there´s nothing else you can do.
I don´t know where you´re going and I don´t know why,
But listen to your heart before you tell him goodbye.
E
And there are voices that want to be heard.
C#m
So much to mention but you can´t find the words.
H A
The scent of magic, the beauty that´s been
H C#
when love was wilder than the wind.
D#m H F# C#
Listen to your heart when he´s calling for you
D#m H F# C#
Listen to your heart, there´s nothing else you can do
F# C# H F#
I don´t know where you´re going and I don´t know why,
D#m H C# D#m H
but listen to your heart before you tell him goodbye.
.
____________________
* табы расписаны без открытых струн,
которые у музыкантов не слишком-то
уважаются за неуправляемый звук.




Ваше мнение



Капча