=== The Eternal Idol's Roxette Tablature
Headless Cross
Roxette - Night Wing (1982)
|--------------------------------------------------------------|
|-------------------------------------------------10-9109------|
|--7--------/9-----------------------7----9-11-9---------9-7---|
|--7--------/9-----------------------7----9-11-9---------------|
|--5--------/7-----------------------5----7--9-7---------------|
|-----------------0-3^-0---0-3^-0------------------------------|
|--------------------------------------------------------|
|-----------------------------------5/7------------------|
|-6---4-6---4-6-9-6---6-4-6---4-6---4/6-4/9--------------|
|-6---4-6---4-6-9-6---6-4-6---4-6---2/4-4/9--------------|
|-4---2-4---2-4-7-4---4-2-4---2-4-------2/7--------------|
|--------------------------------------------------------|
listen for the feet...---------(1)------------------------| (2)
|------------------------------------|--------------------|
|------------------------------------|--------------------|
|-2--------------6--6-4--9-6--64/6--|-----------9-8-6----|
|-2--------4-----6--6-4--9-6--64/6--|--6--7--6--9-8-6----|
|-0--------4-----4--4-2--7-4--42/4--|--6--7--6--7-6-4----|
|----------2-------------------------|--4--5--4-----------|
|--------------------------------------------------------|
|--------------------------------------------------------|
|--------------------------------------------------------|
|--------------------------------------------------------|
|-7-6-7-9-10-9-7-6-7-6-7-9-10-9-12-9---------------------|
|-5-4-5-7--8-7-5-4-5-4-5-7--8-7-10-7---------------------|




Ваше мнение



Капча