The Gates of Hell
Roxette

This Song dosent seem to have any guitar in it...
but heres some chords to strum along to.

d ||----||----|
A ||----||----|
F ||----||-5--|
C ||-2--||-5--|
G ||-2--||-3--|
D ||-0--||----|

Just Listen for the Chord Changes...it should come easy.

Tuning: one step down
principal chords:
* (*:woctaver)
d|--------------------|--0--------------------------|
A|--------------------|-----------------------------|
F|--1--------5--------|-----4-----4-----4-----4-----|
C|--2--------5--------|--------6-----5-----5--------|gtr.1
G|--2--------7--------|-----------------------------|
d|--0--------8--------|-----------------------------|
A|--------------------|-----------------------------|
(both) | |
| |
| * * * * |
d|--0-------0-------0-------0--|
A|-----------------------------|
F|-----4-2-----4-2-----4-2-----|
C|-----------------------------|gtr.2
G|-----------------------------|
D|-----------------------------|
A|-----------------------------|

outro:
d|-------------------------|-------|
A|-------------------------|-------|
F|-------------------------|--1----|
C|--------6----------6-----|--2----|gtr.1
G|-------(7)--------(7)----|--2----|
D|--7-----------7----------|--0----|
A|-------------------------|-------|

d|--------0----------0-----|-------|
A|-------------------------|-------|
F|--4-----------4----------|--*----|
C|-------------------------|--2----|gtr.2
G|-------------------------|-------|
D|-------------------------|-------|
A|-------------------------|-------|




Ваше мнение



Капча