-##
From: [email protected] (Dirk Hoffmann)
Date: 19 Jun 1995 09:47:28 GMT
Subject: TAB: Rory Gallagher - I fall apart
This TAB transcription was created using TAB MASTER version 1.0
***************************************************************
Bye Rory...
RORY GALLAGHER: I FALL APART
A quiet early and sort of melancholic Rory-tune. You find it
on his solo debut entitled "Rory Gallagher". If you have a
live-version, please let me know.
Some parts are difficult to note in an ascii-tab without exact
duration bars, but I hope, together with listening to the
recording, it will work. I tried to compile one tab that contains
the main parts of the first and the overdubbed guitar.
The song is to play in standard tuning with a capo on the 3rd fret.
I noted the frets up from the capo, only the solo I noted originally,
because there are no open strings.
The Intro (about this way):
Gm Gm9/F
e:-------------0----------------------0-----------|
B:------------------------------------------------|
G:----------0-----0-----0----------0-----------0--|
D:--5----5----------------------4-----------4-----|
A:--7----------------5-----5-------------5--------|
E:------------------------------------------------|
???

Eb Eb9
e:-------------0---------------------------|
B:-------------------------3---------------|
G:----------0-----------0------------------|
D:-------2-----------2---------------------|
A:--3-------------3---------------------0--|
E:-----------------------------------------|

Gm Gm9/F
e:--------------0-------------------0--------|
B:-------------------------------------------|
G:-------------------------------0-----------|
D:-----5-----5--------5-------4--------------|
A:-----7-----------------5----------------5--|
E:--0-----0x---------------------------------|

Eb Eb9
e:-------------0----------------------------|
B:-------------------------3----------------|
G:----------0--------------0----------------|
D:-------2-----------2-----2----------------|
A:--3----------------3----------------------|
E:------------------------------------------|
The chorus:
Gm Gm9/F
e:------------------------------------------------|
B:--0----0--0--0--0--0--0--0----0--0--0--0--0--0--|
G:--0----0--0--0--0--0--0--0----0--0--0--0--0--0--|
D:--5----5--5--5--5--5--5--4----4--4--4--4--4--4--|
A:--7----7--7--7--7--7--7--5----5--5--5--5--5--5--|
E:------------------------------------------------|
Like a cat that's playing with a

Ebj7
e:------------------------------------------|
B:--0--0--0--0--0--0--0---------------------|
G:--0--0--0--0--0--0--0---------------------|
D:--2--2--2--2--2--2--2----------0----------|
A:--3--3--3--3--3--3--3--0---2-------3---0h-|
E:------------------------------------------|
ball of twine that you call my

Gm Gm9/F
e:------------------------------------------------|
B:--0----0--0--0--0--0--0--0----0--0--0--0--0--0--|
G:--0----0--0--0--0--0--0--0----0--0--0--0--0--0--|
D:--7----7--7--7--7--7--7--4----4--4--4--4--4--4--|
A:--5----5--5--5--5--5--5--5----5--5--5--5--5--5--|
E:------------------------------------------------|
heart oh but baby is it so

Ebj7
e:-------------------------------------------|
B:--0----0--0--0--0--0--0--------------------|
G:--0----0--0--0--0--0--0--------------------|
D:--2----2--2--2--2--2--2----------0---------|
A:--3----3--3--3--3--3--3--0---2-------3--0h-|
E:-------------------------------------------|
hard to tell the two a-

Gm Gm9/F
e:------------------------------------------------|
B:--0----0--0--0--0--0--0--0----0--0--0--0--0--0--|
G:--0----0--0--0--0--0--0--0----0--0--0--0--0--0--|
D:--2----5--5--5--5--5--5--4----4--4--4--4--4--4--|
A:--7----7--7--7--7--7--7--5----5--5--5--5--5--5--|
E:------------------------------------------------|
part and so slowly you un-

Ebj7 F Fsus4
e:----------------------------------------|--2----2--2====2----3----3--3--|
B:--0----0--0--0--0--0--0-----------------|--3----3--3====3----3----3--2--|
G:--0----0--0--0--0--0--0-----------------|--2----2--2====2----2----2--2--|
D:--2----2--2--2--2--2--2-----------------|--0----------------------------|
A:--3----3--3--3--3--3--3--3---2---0------|-------------------------------|
E:-------------------------------------3--|-------------------------------|
wind it 'til I fall a- part

F (Solo after 2nd chorus)
e:--2----2--0--2----2------------------|
B:--3----3--3--3----3------------------|
G:--2----2--2--2----2------------------|
D:--0---------------------5----7----8)-|
A:---------------5--6--7---------------|
E:------(5--6--7-----------------------|
(noted without capo)

Gm Gm/F
e:------------------------------------------------|
B:------------------------------------------------|
G:------------------------------------------------|
D:--7h8p7--------------------(7)h8--(7)h8--(7)h8--|
A:--------10--10--10\-----------10-----10-----10--|
E:------------------------------------------------|

Eb
e:--------------------------------------------|
B:--------------------------------------------|
G:--------------------------------------------|
D:--(7)h8-p7--------------------8-p7--8---8---|
A:-----10-----10--8--10-----------------------|
E:--------------------------------------------|

Gm Gm/F
e:------------------------------------|
B:------------------------------------|
G:------------------------------------|
D:--8~--p7-------------7--8--10====/--|
A:----------10--8--10-----------------|
E:------------------------------------|

Eb
e:---------------------------------------------|
B:---------------------------------------------|
G:---------------------------------------------|
D:--10-p8-p7-8-------10-p8-p7-8-------10-p8-p7-|
A:---------------------------------------------|
E:---------------------------------------------|

Gm Gm/F
e:----------------------------------------------------|
B:----------------------------------------------------|
G:----------------------------------------------------|
D:--8~---7------7--8--10-------10-p8-p7--8--7---------|
A:----------10---------------------------------10--8--|
E:----------------------------------------------------|

Eb
e:-------------------------------------------------|
B:-------------------------------------------------|
G:---------------------------------------7----7----|
D:--------8-------7-h8-p7------7--8--10------------|
A:--10~--------------------10----------------------|
E:-------------------------------------------------|

F
e:--------------------------------|
B:--------------------------------|
G:-----10---------10-----10-------|
D:--------------------------------|
A:--8------8----------8------8----|
E:--------------------------------|

F
e:-------------------------------------------|
B:-------------------------------------------|
G:--10------10------10------10------10--/12==|
D:------8~------8~------8~------8~-----------|
A:-------------------------------------------|
E:-------------------------------------------|

Gm Gm/F
e:------------------------------10--10--------------|
B:------------------10--11--13----------------------|
G:==12------10--12--------------------------10--12--|
D:--------------------------------------------------|
A:--------------------------------------------------|
E:--------------------------------------------------|

Eb
e:------------------------------------------------|
B:--10--11--13--/15--15---------------10--11--13--|
G:--------------------------------12--------------|
D:----------------------------12------------------|
A:------------------------------------------------|
E:------------------------------------------------|

Gm Gm/F
e:----------------------------------------------------------|
B:--13b(15)--r13--p11--13--11--10-h11-p10---------------10--|
G:-----------------------------------------12--10--12~------|
D:----------------------------------------------------------|
A:----------------------------------------------------------|
E:----------------------------------------------------------|
(pre-bend)

Eb
e:------------------------------------------------|
B:-----------10--11--13----13b(15)----b15----b15==|
G:-------12---------------------------------------|
D:------------------------------------------------|
A:------------------------------------------------|
E:------------------------------------------------|

Gm Gm/F
e:----------------------------------------------------------------------|
B:==(b15)----(15)r13--11--13----11--p10---------------------------------|
G:---------------------------------------12==------10-h12-p10-9-10--12==|
D:----------------------------------------------------------------------|
A:----------------------------------------------------------------------|
E:----------------------------------------------------------------------|

Eb
e:------------------------------------------------------------------|
B:----------------------10-----------------------(10)h12--(10)h12~--|
G:==(12)-------10--h12------12--\10--8--10--/12---------------------|
D:------------------------------------------------------------------|
A:------------------------------------------------------------------|
E:------------------------------------------------------------------|

(the following is noted up from the capo again)
F F
e:---------------------------------|-------------------------|
B:--3----3--3====3-----------------|--3----3----3---3-3------|
G:--2----2--2====3-----------------|--2----2----2---2-2------|
D:--0------------------------3~----|--0----0----0---0-0------|
A:--------------------0--h2--------|-------------------------|
E:---------------------------------|-------------------------|
The bridge:
Gm Gm7
e:--------------|
B:--0------0----|
G:--0------0----|
D:--2------0----|
A:--2------2----|
E:--0------0----|
I don't

Csus2 Csus2 Gm Gm Gm7
e:--------------------------------------|------7--7--7--7----------------|
B:--0----0----0--0----0----0----0----0--|------8--7--8--7----0------0----|
G:--2----2----2--2----2----2----2----2--|------7--7--7--7----0------0----|
D:--2----2----2--2----2----2----2----2--|------7-------------2------0----|
A:--0-----------------0-----------------|--------------------2------2----|
E:--------------------------------------|--0-----------------0------0----|
mind waiting for your love for of

Csus2 Csus2 Gm Gm Gm7
e:--------------------------------------|------7--7--7--7----------------|
B:--0----0----0--0----0----0----0----0--|------8--7--8--7----0------0----|
G:--2----2----2--2----2----2----2----2--|------7--7--7--7----0------0----|
D:--2----2----2--2----2----2----2----2--|------7-------------2------0----|
A:--0-----------------0-----------------|--------------------2------2----|
E:--------------------------------------|--0-----------------0------0----|
time I've got plenty of rain or

Csus2 Csus2 Gm Gm Gm7
e:--------------------------------------|------7--7--7--7----------------|
B:--0----0----0--0----0----0----0----0--|------8--7--8--7----0------0----|
G:--2----2----2--2----2----2----2----2--|------7--7--7--7----0------0----|
D:--2----2----2--2----2----2----2----2--|------7-------------2------0----|
A:--0-----------------0-----------------|--------------------2------2----|
E:--------------------------------------|--0-----------------0------0----|
shine please bring out your love make it

Csus2 Csus2
e:--------------------------------------|
B:--0----0----0--0----0----0----0----0--|
G:--2----2----2--2----2----2----2----2--|
D:--2----2----2--2----2----2----2----2--|
A:--0-----------------0-----------------|
E:--------------------------------------|
shine like the stars a-

Gm Gm9/F Ebj7
e:-----------------------------|--------------------------|
B:--0-------------0------0--0--|--0------0--0-------------|
G:--0------0--0---0------0--0--|--0------0--0-------------|
D:--5------5--5---4------4--4--|--2------2--2-------------|
A:--7------7--7---5------5--5--|--3-----------------------|
E:--0--------------------------|--------------------------|
bove
The Coda:
e:-----------------------|
B:-----------------------|
G:-----------------------|
D:-------------------2~--|
A:-------------0--2------|
E:--0--2--3~-------------|

Csus2 Cm
e:----------------------------------------------|
B:--0----0--0--0--0--0--0-----------------------|
G:--2----2--2--2--2--2--2-------------------2~--|
D:--2----2--2--2--2--2--2-------------0--2------|
A:--0----------------------0--2--3~-------------|
E:----------------------------------------------|

Gm Gm
e:----------------------------------------------|
B:--0----0--0--0--0--0--0-----------------------|
G:--0----0--0--0--0--0--0-----------------------|
D:--2----2--2--2--2--2--2-------------------2~--|
A:--2---------------------------------0--2------|
E:--0----------------------0--2--3~-------------|

Csus2 Cm
e:---------------------------------------------|
B:--0----0--0--0--0--0--0----------------------|
G:--2----2--2--2--2--2--2-------------------0--|
D:--2----2--2--2--2--2--2-------------0--2-----|
A:--0----------------------0--2--3~------------|
E:---------------------------------------------|

Gm
e:---------------------------------------------------------|
B:---------------------------------------------------------|
G:--2b(4)----b4----b4----b4----b4--b4--b4--b4--b4b4b4b4b4--|
D:---------------------------------------------------------|
A:---------------------------------------------------------|
E:---------------------------------------------------------|
(Harmonics....)

Gm Gm9/F Ebj7
e:---------------------|---------------------------------|
B:--0---------0--------|--0------------------------------|
G:--0---------0--------|--0------------------------------|
D:--5---------4--------|--2---------------------------0--|
A:--7---------5--------|--3--------3--p2--3--p3--3~------|
E:--0---------0--------|---------------------------------|

(etc...)
e:-----|-----|---------|-----|-----|------|------|-----|-----|-----|------|
B:-----|-----|---------|-----|-----|------|------|-----|-----|-----|------|
G:-----|--0--|---------|-----|-----|------|------|--4--|--5--|--7--|--9---|
D:--5--|--4--|--2---2--|--5--|--7--|---9--|--10--|--5--|--7--|--9--|--10--|
A:--7--|--5--|--3---3--|--7--|--9--|--10--|--12--|-----|-----|-----|------|
E:-----|-----|---------|-----|-----|------|------|-----|-----|-----|------|
(play with palm mute...)

Gm Gm9/F Ebj7
e:--------0---------------|----------------------|
B:--------0----0----0--0--|--0--------2b(4)-/----|
G:--------0----0----0--0--|--0-------------------|
D:--------5----4----4--4--|--2-------------------|
A:-----7-------5----5--5--|--3-------------------|
E:--0---------------------|----------------------|

Gm Gm9/F Ebj7
e:------------------------|--------------------------------------------|
B:--------0----0----0--0--|--0----0-------5----3--5----3--5-p3-----5p--|
G:--------0----0----0--0--|--0----0-----------------------------4------|
D:--------5----4----4--4--|--2----2------------------------------------|
A:-----7-------5----5--5--|--3----3------------------------------------|
E:--0---------------------|--------------------------------------------|

Gm Gm9/F
e:----------------------------------|
B:----------0--0--0--0-----------0--|
G:--0-------0--0--0--0-----------0--|
D:--5-------5--5--5--5--------4-----|
A:--7----7--------------5~~---------|
E:----------------------------------|

Ebj7
e:---------------------------0-------------|
B:------------------------3--3-------------|
G:---------------------3b(4)-----2--p0-----|
D:--------2--2--------------------------2--|
A:--3~~~-----3~~---------------------------|
E:-----------------------------------------|

Gm Gm9/F Ebj7
e:---------------------------------------------|-------------------------|
B:--------0--0--0--0---0--0--0--0--0--0--0--0--|--0----0--0--0--0--0--0--|
G:--------0--0--0--0---0--0--0--0--0--0--0--0--|--0----0--0--0--0--0--0--|
D:--------5--5--5--5---4--4--4--4--4--4--4--4--|--2----2--2--2--2--2--2--|
A:-----7---------------5--5--5--5--5--5--5--4--|--3----3--3--3--3--3--3--|
E:--0------------------------------------------|-------------------------|

e:-----|-----|------|------|-----|-----|-----|-----|
B:-----|-----|------|------|-----|-----|-----|-----|
G:-----|-----|------|------|-----|-----|-----|-----|
D:--5--|--7--|---9--|--12--|--9--|--9--|--9--|--9--|
A:--7--|--9--|--10--|--10--|--7--|--7--|--7--|--7--|
E:-----|-----|------|------|-----|-----|-----|-----|

Gm Gm9/F Ebj7 F Fsus2
e:-------------------------------------|---------------------2---------0--|
B:--0----0--0----0--0--0----0--0----0--|--0----0--0----0--0--3----3-------|
G:--0----0--0----0--0--0----0--0----0--|--0----0--0----0--0--2------------|
D:--5----5--5----5--5--4----4--4----4--|--2----2--2----2--2--0------------|
A:--7----7--7----7--7--5----5--5----5--|--3----3--3----3--3---------------|
E:-------------------------------------|----------------------------------|

Gm (let ring....)
e:--0-----------------------------------|
B:--0-----------------------------------|
G:--0-----------------------------------|
D:--5-----------------------------------|
A:--7-----------------------------------|
E:--------------------------------------|

like a cat that's playing with a ball of twine
that you call my heart
oh, but baby is it so hard
to tell the two apart
and so slowly you unwind it
'til I fall apart
I'm only living for the hour
that I see your face
when that happens I don't
wanna be no other place
'til the end of time
you'll be on my mind
I don't mind waiting for your love
for of time I've got plenty of
rain or shine please bring out your love
make it shine like the stars above
I'm only living for the moment
that I hear your voice
oh, I'm waiting
I don't have any choice
and the day is long
so won't you come where you should be
like a cat that's playing with a ball of twine
that you call my heart
oh baby, is it so hard
to tell the two apart
and so slowly you unwind it
'til I fall apart
*********************************************************
* *
* transcribed 6/95 by *
* *
* DIRK HOFFMANN *
* *
* [email protected] *
*********************************************************




Ваше мнение



Капча