Title: Bullfrog Blues
From: Rory Gallagher
^^^^^^^^^^^^^^^^^^^^^
transcribed by: Darren Gorman
Tuning:
------
Guitar tuned to open A with a capo on the second
fret - which is open B!(from low to high: F#/B/F#/B/D#/F#)

INTRO:
Well did you ever? Well did you ever?
|-------------------2d------------------|---------------------2d----------------|
|-------------------2d------------------|---------------------2d----------------|
|-------------------2d------------------|---------------------2d----------------|
|-------------------2d------------------|---------------------2d----------------|
|-------------------2d------------------|---------------------2d----------------|
|---------------------------------------|---------------------------------------|
B B
Well did you ever?
|-------------------2-------------------|---------------------------------------|
|-------------------2-------------------|-/5--3---------------------------------|
|-------------------2-------------------|-----------2-----2---------------------|
|-------------------2-------------------|-/5--4---------------------------------|
|-------------------2-------------------|--------5b----5b-----------------------|
|---------------------------------------|---------------------------------------|
B (let ring)
|------------------------------------7--2d-------|
|-----------------------------------5---2d-------|
|-----2----------------------------2----2d-------|
|--------5p2--------5--5p2--------------2d-------|
|--5b---------7p5p2---------7p5p2-------2d-------|
|------------------------------------------------|
FIRST VERSE:
Well did you ever wake up
with them bullfrogs on your mind?
|-------------------------------5-5-5---5-5-5---5-5-5---5-5-5-------------------|
|-------------------------------5-5-2---5-5-5---5-5-5---5-5-5-------------------|
|-------------------------------2-2-2---2-2-2---2-2-2---2-2-2-------------------|
|-------------------------------2-2-2---2-2-2---2-2-2---2-2-2-------------------|
|-------------------------------2-2-2---2-2-2---2-2-2---2-2-2-------------------|
|-------------------------------------------------------------------------------|
(Drums) B
Well did you ever wake up
with them bullfrogs on your mind?
|--7-7-7---7-7-7---7-7-7---7-7-7---5-5-5---5-5-5---5-5-5---5-5-5----------------|
|--7-7-7---7-7-7---7-7-7---7-7-7---5-5-5---5-5-5---5-5-5---5-5-5----------------|
|--7-7-7---7-7-7---7-7-7---7-7-7---2-2-2---2-2-2---2-2-2---2-2-2----------------|
|--7-7-7---7-7-7---7-7-7---7-7-7---2-2-2---2-2-2---2-2-2---2-2-2----------------|
|--7-7-7---7-7-7---7-7-7---7-7-7---2-2-2---2-2-2---2-2-2---2-2-2----------------|
|-------------------------------------------------------------------------------|
E B
You had to sit there laughin',
|---------------9-9-9---9-9-9---------------------------------------------------|
|---------------9-9-9---9-9-9---------------------------------------------------|
|---------------9-9-9---9-9-9---------------------------------------------------|
|---------------9-9-9---9-9-9---------------------------------------------------|
|---------------9-9-9---9-9-9---------------------------------------------------|
|-------------------------------------------------------------------------------|
F
Laughing just to keep from cryin'
|--7-7-7---7-7-7----------------2-2-2---2-2-2---2-2-2---2-2-2-------------------|
|--7-7-7---7-7-7----------------2-2-2---2-2-2---2-2-2---2-2-2-------------------|
|--7-7-7---7-7-7----------------2-2-2---2-2-2---2-2-2---2-2-2-------------------|
|--7-7-7---7-7-7----------------2-2-2---2-2-2---2-2-2---2-2-2-------------------|
|--7-7-7---7-7-7----------------2-2-2---2-2-2---2-2-2---2-2-2-------------------|
|-------------------------------------------------------------------------------|
E B
2nd verse:
Well did you ever wake up with that one woman on your mind?
Well did you ever wake up with that one woman on your mind?
You had to sit there laughin', laughin' just to keep from cryin'
3rd verse:
My mother got 'em My father got 'em
|-------------------------------------------------------------------------------|
|-------------------------------------------------------------------------------|
|-----------------2-------------------------------2-----------------------------|
|----------2-2--4--------------------------2-2--4-------------------------------|
|--2--5-6---------------------------2--5-6--------------------------------------|
|-------------------------------------------------------------------------------|
My sister got 'em My brother got 'em
|-------------------------------------------------------------------------------|
|-------------------------------------------------------------------------------|
|----------------2-------------------------------2------------------------------|
|---------2-2--4--------------------------2-2--4--------------------------------|
|--2--5-6--------------------------2--5-6---------------------------------------|
|-------------------------------------------------------------------------------|
I woke up this morning, my grandmother had 'em too
|--7-7-7---7-7-7---7-7-7---7-7-7-----------------5-5-5---5-5-5---5-5-5---5-5-5--|
|--7-7-7---7-7-7---7-7-7---7-7-7-----------------5-5-5---5-5-5---5-5-5---5-5-5--|
|--7-7-7---7-7-7---7-7-7---7-7-7-----------------2-2-2---2-2-2---2-2-2---2-2-2--|
|--7-7-7---7-7-7---7-7-7---7-7-7-----------------2-2-2---2-2-2---2-2-2---2-2-2--|
|--7-7-7---7-7-7---7-7-7---7-7-7-----------------2-2-2---2-2-2---2-2-2---2-2-2--|
|-------------------------------------------------------------------------------|
Don't you know about that,
|---------------9-9-9---9-9-9---------------------------------------------------|
|---------------9-9-9---9-9-9---------------------------------------------------|
|---------------9-9-9---9-9-9---------------------------------------------------|
|---------------9-9-9---9-9-9---------------------------------------------------|
|---------------9-9-9---9-9-9---------------------------------------------------|
|-------------------------------------------------------------------------------|
F
I got the bullfrog blues
|--7-7-7---7-7-7----------------2-2-2---2-2-2---2-2-2---2-2-2-------------------|
|--7-7-7---7-7-7----------------2-2-2---2-2-2---2-2-2---2-2-2-------------------|
|--7-7-7---7-7-7----------------2-2-2---2-2-2---2-2-2---2-2-2-------------------|
|--7-7-7---7-7-7----------------2-2-2---2-2-2---2-2-2---2-2-2-------------------|
|--7-7-7---7-7-7----------------2-2-2---2-2-2---2-2-2---2-2-2-------------------|
|-------------------------------------------------------------------------------|
E B
FIRST SOLO
|-----17--17--17--17---16--16---15--15---14~-14-14--14\13-----------------------|
|--/17--17--17--17--/16--16--/15--15--/14-----------------13/14-----------------|
|---------------------------------------------------------------14--------------|
|-------------------------------------------------------------------------------|
|-------------------------------------------------------------------------------|
|-------------------------------------------------------------------------------|
|----7-7-7-7---10--10----------------/7--5\4p2----------------------------------|
|--/7-7-7-7-/10--10--\----------------------------------------------------------|
|----------------------4/5--2--4/5--2----------4/5--2---------------------------|
|-------------------------------------------------------------------------------|
|-------------------------------------------------------------------------------|
|-------------------------------------------------------------------------------|
|--------------|---------------------|-------------------------------------------|
|------9-------|---------------------|-------------------------------------------|
|--5/9--9\5-2--|------7-7-7-7\5---2--|-----2-7\5-2---2---------------------------|
|--------------|--5/7-----------5----|-2/5---------/5----------------------------|
|--------------|---------------------|-------------------------------------------|
|--------------|---------------------|-------------------------------------------|
F E B
- - - - - - - - - - - - - - - - - -
|-------------------------------------|--------------------------------7--------|
|-------------------------------------|-----------------------------------------|
|-------------------------------------|----------------------7\5-2-5/7----------|
|-------2-5/7-7-7-7-etc.-7-7\5-2----2-|-----2-5/7-7-7-etc.-7--------------------|
|--2/5---------------------------/5---|-2/5-------------------------------------|
|-------------------------------------|-----------------------------------------|

|-------7-7-7-7-------7-7-7-7---------|--7-2---5-2---4-2---5-2---/7-------------|
|-------------------------------------|-----------------------------------------|
|--5/7-----------5/7------------------|-----------------------------------------|
|-------------------------------------|-----------------------------------------|
|-------------------------------------|-----------------------------------------|
|-------------------------------------|-----------------------------------------|
|-----9------------7-7-7-7------------------------------------------------------|
|--/9---/9-----5/7-----------7\5------------------------------------------------|
|----------9---------------------5-2------2-2----2------------------------------|
|-------------------------------------------------------------------------------|
|--------------------------------------5b-----5b--------------------------------|
|-------------------------------------------------------------------------------|
4th verse:
My mother got 'em My father got 'em
|-------------------------------------------------------------------------------|
|-------------------------------------------------------------------------------|
|-----------------2-------------------------------2-----------------------------|
|----------2-2--4--------------------------2-2--4-------------------------------|
|--2--5-6---------------------------2--5-6--------------------------------------|
|-------------------------------------------------------------------------------|
My sister got 'em My brother got 'em
|-------------------------------------------------------------------------------|
|-------------------------------------------------------------------------------|
|----------------2-------------------------------2------------------------------|
|---------2-2--4--------------------------2-2--4--------------------------------|
|--2--5-6--------------------------2--5-6---------------------------------------|
|-------------------------------------------------------------------------------|
I woke up this morning, my grandmother had 'em too
|--7-7-7---7-7-7---7-7-7---7-7-7-----------------5-5-5---5-5-5---5-5-5---5-5-5--|
|--7-7-7---7-7-7---7-7-7---7-7-7-----------------5-5-5---5-5-5---5-5-5---5-5-5--|
|--7-7-7---7-7-7---7-7-7---7-7-7-----------------2-2-2---2-2-2---2-2-2---2-2-2--|
|--7-7-7---7-7-7---7-7-7---7-7-7-----------------2-2-2---2-2-2---2-2-2---2-2-2--|
|--7-7-7---7-7-7---7-7-7---7-7-7-----------------2-2-2---2-2-2---2-2-2---2-2-2--|
|-------------------------------------------------------------------------------|
Don't you know about that,
|---------------9-9-9---9-9-9---------------------------------------------------|
|---------------9-9-9---9-9-9---------------------------------------------------|
|---------------9-9-9---9-9-9---------------------------------------------------|
|---------------9-9-9---9-9-9---------------------------------------------------|
|---------------9-9-9---9-9-9---------------------------------------------------|
|-------------------------------------------------------------------------------|
F
I got the bullfrog blues
|--7-7-7---7-7-7----------------2-2-2---2-2-2---2-2-2---2-2-2-------------------|
|--7-7-7---7-7-7----------------2-2-2---2-2-2---2-2-2---2-2-2-------------------|
|--7-7-7---7-7-7----------------2-2-2---2-2-2---2-2-2---2-2-2-------------------|
|--7-7-7---7-7-7----------------2-2-2---2-2-2---2-2-2---2-2-2-------------------|
|--7-7-7---7-7-7----------------2-2-2---2-2-2---2-2-2---2-2-2-------------------|
|-------------------------------------------------------------------------------|
E B
5th verse:
Called up my doctor was not feeling so well
|-----5-5-5---5-5-5---5-5-5---5-5-5------7-7-7---7-7-7---7-7-7---5-5-5----------|
|-----5-5-5---5-5-5---5-5-5---5-5-5------5-5-5---5-5-5---5-5-5---5-5-5----------|
|-----2-2-2---2-2-2---2-2-2---2-2-2------2-2-2---2-2-2---2-2-2---2-2-2----------|
|-----2-2-2---2-2-2---2-2-2---2-2-2------2-2-2---2-2-2---2-2-2---2-2-2----------|
|-----2-2-2---2-2-2---2-2-2---2-2-2------2-2-2---2-2-2---2-2-2---2-2-2----------|
|-------------------------------------------------------------------------------|
Well I called up my doctor was not feeling so well
|-----7-7-7---7-7-7---7-7-7---7-7-7--------------7-7-7---7-7-7---7-7-7---5-5-5--|
|-----7-7-7---7-7-7---7-7-7---7-7-7--------------5-5-5---5-5-5---5-5-5---5-5-5--|
|-----7-7-7---7-7-7---7-7-7---7-7-7--------------2-2-2---2-2-2---2-2-2---2-2-2--|
|-----7-7-7---7-7-7---7-7-7---7-7-7--------------2-2-2---2-2-2---2-2-2---2-2-2--|
|-----7-7-7---7-7-7---7-7-7---7-7-7--------------2-2-2---2-2-2---2-2-2---2-2-2--|
|-------------------------------------------------------------------------------|
He looked inside his bag and said "Well, well..."
|-----9-9-9---9-9-9------7-7-7---7-7-7-----------7-7-7---7-7-7---7-7-7---5-5-5--|
|-----9-9-9---9-9-9------7-7-7---7-7-7-----------5-5-5---5-5-5---5-5-5---5-5-5--|
|-----9-9-9---9-9-9------7-7-7---7-7-7-----------2-2-2---2-2-2---2-2-2---2-2-2--|
|-----9-9-9---9-9-9------7-7-7---7-7-7-----------2-2-2---2-2-2---2-2-2---2-2-2--|
|-----9-9-9---9-9-9------7-7-7---7-7-7-----------2-2-2---2-2-2---2-2-2---2-2-2--|
|-------------------------------------------------------------------------------|
6th verse:
You don't need no doctor You don't need no pill
|--5------------------------------------|--5------------------------------------|
|--5------------------------------------|--5------------------------------------|
|--2------------------------------------|--2------------------------------------|
|--2------------------------------------|--2------------------------------------|
|--2------------------------------------|--2------------------------------------|
|---------------------------------------|---------------------------------------|
(let ring!) (Let ring!)
You don't need no doctor You don't need no pill
|--2-7----------------------------------|--2------------------------------------|
|--2-7----------------------------------|--2------------------------------------|
|--2-7----------------------------------|--2------------------------------------|
|--2-7----------------------------------|--2------------------------------------|
|--2-7----------------------------------|--2------------------------------------|
|---------------------------------------|---------------------------------------|
(let ring!) (let ring!)
Just take my advice it'll surely cure all you ills
|--2------------------------------------|--2-----------------2------------2-----|
|--5------------------------------------|--3-----------------2------------2-----|
|--4------------------------------------|--2-----------------2------------2-----|
|--2------------------------------------|--4-----------------2------------2-----|
|--4------------------------------------|--2-----------------2------------2-----|
|---------------------------------------|---------------------------------------|
(let ring!) (let ring!)
------------------------
lyrics:
Head on down to New Orleans the prettiest place you've ever seen
Head on down to the river bend that's where the music never ends
Open your ears, don't you feel good, get yourself a shot of rhythm an’ blues.
Go on down to New Orleans, the greatest place you've ever seen
Go on down to the river bend, Dig the music of the Cajun bands
Honky-tonk piano make you feel good, open your ears to the rhythm & blues
Well did you ever wake up with them bullfrogs on your mind?
Well did you ever wake up with them bullfrogs on your mind?
You had to sit there laughin', laughing just to keep from cryin'
Well did you ever wake up with that blonde woman on your mind?
Well did you ever wake up with that blonde woman on your mind?
You had to sit there laughin', laughin' just to keep from cryin'
----------------------




Ваше мнение



Капча