Author/Artist: Rory Gallagher
Title: Back On My (Stompin' Ground)
Album: Irish Tour
Transcribed by: Eleanor Mollett
Email: [email protected]
This is a 12 bar blues, and I have tabbed what notes you play in each part, then
at the bottom it tells you how many times to play each bar. The tabbed parts
are just the basic part that is played, but if you want to make it sound
more interesting, just add some variations within the structure.
G|----------------------|
D|----------------------| Intro
A|------5---6-----------|
E|---7------------------|
G|---------------------------------|
D|------------------7--5-----------|
A|---7-----5--7--7--------7--------| A
E|------7--------------------------|
G|------------------7--5-----------|
D|---7-----5--7--7---------7-------|
A|------7--------------------------| B
E|---------------------------------|
G|---------------------------------|
D|----------------2--0-------------|
A|--2----0--2--2--------2----------| C
E|----2----------------------------|

A x 4
B x 2
A x 2
C x 1
B x 1
A x 2




Ваше мнение



Капча