Ain't too good by Rory Gallagher from the album Against The Grain
Transcribed by Rob Watson [email protected]
Intro
Dm Gm C F Bb Bb/A A7sus4 A7
Dm Bb Am
Well, it ain't too good the way you treat your man
Dm Bb Am
It's less than good it sure ain't kind
Dm Bb Am
It's your mistake you'll see in time
Bb C Dm Bb C A
When I'm gone When I'm gone
Dm Bb Am
Well, it's been so long since I felt that glow
Dm Bb Am
The flame was bright but it's burning low
Dm Bb Am
I should be gone but I'm slow to go
Bb C Dm Bb C
Serves me right Serves me
Am Dm Gm C A7sus4 A7
Dm Gm C F Bb Bb/A A7sus4 A7
Guitar solo
Dm Bb Am
E|10p8|10sd---------------------|---------------10p8|
B|----|-------------------------|-8b10-8-6-5--------|
G|----|-------7p5-7-------------|-------------------|
D|----|---------------3s5-3-5-3-|-------------------|
A|----|-------------------------|-------------------|
E|----|-------------------------|-------------------|
Dm Bb Am Dm
E|10sd--------------------|-------------10p8|10sd-------------------|
B|------------------------|-8b10-8-6-5------|-----------------------|
G|-------7p5-7------------|-----------------|-------7p5-7-----------|
D|--------------3s5-3-5-3-|-----------------|-------------3s5-3-5-3-|
A|------------------------|-----------------|-----------------------|
E|------------------------|-----------------|-----------------------|
Bb Am Bb C Dm
E|-------------------|-----------8---------------------|------------|
B|-8b10-8-6-5---5h6-5|--5-6-8b10---r8-6h8p6s5-6-5-6p5--|5--------5-6|
G|-------------------|7-------------------------------7|--7-7--7----|
D|-------------------|---------------------------------|------------|
A|-------------------|---------------------------------|------------|
E|-------------------|---------------------------------|------------|
Bb C Am Dm Gm C A7sus4 A7
E|-----8-5-8p5---5------8---------|-------------|
B|8b10---------8---8b10---r8-6-8-6|8b10---------|
G|--------------------------------|-------------|
D|--------------------------------|-------------|
A|--------------------------------|-------------|
E|--------------------------------|-------------|
Dm Gm C F Bb Bb/A A7sus4 A7

Dm Bb Am
Well, it ain't too late to change your mind
Dm Bb Am
For it's time you knew just where I stand
Dm Bb Am
Well let me know cos I got plans
Bb C Dm
From now on
E|-------------------|---------10-----------------10------------|
B|----6--------8-----|---13b15----r13-10-------10----10-13-13b15|
G|----8b10-----10b12-|-------------------12b14------------------|
D|-------------------|------------------------------------------|
A|-------------------|------------------------------------------|
E|-------------------|------------------------------------------|
Bb C Dm
From now on

Bb C Dm
From now on
E|-------------------|---------10-10------10-10-------10-10-----|
B|-------------------|---13b15-------13b15------13b15-----------|
G|-------------------|------------------------------------------|
D|-------------------|------------------------------------------|
A|-------------------|------------------------------------------|
E|-------------------|------------------------------------------|
Bb C Dm
now on
E|------10h12p10----10-12-13-12h13p12-10-12---|-------------10-----|
B|13b15----------13-------------------------13|13b15-r13b15---13b15|
G|--------------------------------------------|--------------------|
D|--------------------------------------------|--------------------|
A|--------------------------------------------|--------------------|
E|--------------------------------------------|--------------------|
Bb C

E|--------------------------------------------------------|
B|10h13p10----10------------------------------------------|
G|---------12----12-10-9h10p9----9-10-12-12b14r12-10-12-10|
D|----------------------------12--------------------------|
A|--------------------------------------------------------|
E|--------------------------------------------------------|
Dm Bb C

E|------------13-13-13-13-12--10h12p10---|----------------------------------------|
B|-------------------------------------13|13b15-----------------------------------|
G|12b14r12b14----------------------------|------10h12p10s9-10-9h10p9----9-11-12b14|
D|---------------------------------------|--------------------------12------------|
A|---------------------------------------|----------------------------------------|
E|---------------------------------------|----------------------------------------|
Dm

E|-----------------------------------|
B|13--10h11p10-----------------------|
G|-------------12-10-9h10p9----9-10--|
D|--------------------------12-------|
A|-----------------------------------|
E|-----------------------------------|

Bb C

E|---------------------------------------------------|
B|------10h11p10-------------------------------------|
G|12b14----------12-10-9-----9h10p9------------------|
D|-----------------------12---------12-10-12b15r12-10|
A|---------------------------------------------------|
E|---------------------------------------------------|

Dm

E|--------------------------------------------|
B|--------------------------------------------|
G|--------------------------------------------|
D|12b15r12----------------------------------10|
A|---------12-10----10--------------8-10-12---|
E|---------------13----13-10-8-8h10-----------|

Bb C

E|------------------------10h13p10----10------|
B|---------------------13----------13----13-10|
G|10-9h10p9----9-12b14------------------------|
D|----------12--------------------------------|
A|--------------------------------------------|
E|--------------------------------------------|
Dm

E|------13-13---------------------------------|
B|13b15-------13b15r13-10-13-10---------------|
G|------------------------------12b14r12-10-12|
D|--------------------------------------------|
A|--------------------------------------------|
E|--------------------------------------------|
Bb C

E|--------------------------10------------------------|
B|-----------------------------10-13-(13pb15)r13-10-13|
G|10h12p10----10-9-10-12b14---------------------------|
D|---------12-----------------------------------------|
A|----------------------------------------------------|
E|----------------------------------------------------|
Dm

E|-----------------------------------|
B|13b15-13b15-13b15r13-13b15r13-13p10|
G|-----------------------------------|
D|-----------------------------------|
A|-----------------------------------|
E|-----------------------------------|
Bb C Dm

E|---------------------------13-13--13---------------|-------|
B|11-10h11p10----10-11h13b15----r13-11-10h11p10------|13b15--|
G|------------12-----------------------------------10|-------|
D|----------------------------------------------12---|-------|
A|---------------------------------------------------|-------|
E|---------------------------------------------------|-------|




Ваше мнение



Капча