These Words are not enough by Relient K
Standard Tuning

(Intro)
G:-------------------------------------------------------------
D:------------------------------------------------------------- X2
A:-----2-2-2-4-4-4-2-----0-4-2-0------2-2-2-4-4-4-2-0-0-0-0-0-0
E:-0-0---------------0-0----------0-0--------------------------

G:------------------------------------------------
D:------------------------------------------------
A:-4-4-4-4-4-4-4-4--------------------------------
E:-----------------4-4-4-4-4-4-4-4-5-5-5-5-5-5-5-5

G:--------
D:--------
A:-------2
E:-0------

G:-----------------------------------------------
D:----------------------------------------------- X3
A:4-4-4-4-4-4-2-2-2-2-2-2-5-5-5-5-5-5-2-2-2-2-2-2
E:-----------------------------------------------

(Chorus)
G:----------------------------
D:---------------------------- X2
A:----------------------------
E:-0-0-0-0-0-0-4-4-4-4-5-5-5-5

G:-------------------------------------------------------------
D:-------------------------------------------------------------
A:-----2-2-2-4-4-4-2-----0-4-2-0------2-2-2-4-4-4-2-0-0-0-0-0-0
E:-0-0---------------0-0----------0-0--------------------------

G:------------------
D:------------------
A:-4-4-----------2-2
E:-----4-4-5-0-0----

G:-------------------------------------------------------
D:-------------------------------------------------------
A:-------------------------------------------------------
E:4-4-4-4-4-4-5-5-5-5-5-5-0-0-0-0-0-0-0-0-7-7-7-7-7-7-7-7

(Chorus)
G:----------------------------
D:---------------------------- X2
A:----------------------------
E:-0-0-0-0-0-0-4-4-4-4-5-5-5-5

G:-----------------------------------------------
D:----------------------------------------------- X2
A:4-4-4-4-4-4-2-2-2-2-2-2-5-5-5-5-5-5-2-2-2-2-2-2
E:-----------------------------------------------

G:----------------------------
D:---------------------------- X8
A:----------------------------
E:-0-0-0-0-0-0-4-4-4-4-5-5-5-5

G:--------------------------------------
D:-------------------------------------- X2
A:--------------------------------------
E:-0-0-0-0-0-4-4-4-4-4-5-5-5-5-0-0-0-0-0

Thanks, please rate after you learn it.
Tabbed by:
_TheBassist01_




Ваше мнение



Капча

Рекомендуем