This is pretty accurate caz my guitar teacher taught me it.
So here it is:

Intro
1-------------|-------------|-------------|-------------|
2--------11---|--------10---|--------8----|--------11---|
3----10-------|----10-------|----10-------|----10-------|
4-8-----------|-8-----------|-8-----------|-8-----------|
5-------------|-------------|-------------|-------------|
6-------------|-------------|-------------|-------------|

1-------------|-------------|-------------|-------------|
2----11---11--|----10---10--|----8---8----|----11---11--|
3--10---10----|--10---10----|--10--10-----|--10---10----|
4-8----8------|-8----8------|-8---8-------|-8----8------|
5-------------|-------------|-------------|-------------|
6-------------|-------------|-------------|-------------|
Bb5 F5 G5 Eb5
1-----------|------------|------------|------------| Repeat 4x
2-----------|------------|------------|------------|
3-----------|------------|------------|------------|
4-3--3-3-3-3|------------|------------|-8--8-8-8-8-|
5-1--1-1-1-1|-3--3-3-3-3-|-5--5-5-5-5-|-6--6-6-6-6-|
6-----------|-1--1-1-1-1-|-3--3-3-3-3-|------------|

1---------|---------|---------|---------| |--------------|
2---------|---------|---------|---------| |--------------|
3---------|---------|---------|---------| |--------------|
4--3------|---------|--rest---|--rest---|rest 3 more times|----8----8-8-8|
5--1------|---------|---------|---------| |----6----6-6-6|
6---------|---------|---------|---------| |--------------|
hold out for 2 measures ^
1-----------|-----------|-----------|-----------|
2-----------|-----------|-----------|-----------|
3-----------|-----------|-----------|-----------|
4-3--3--3--3|-----------|-----------|--8--------|
5-1--1--1--1|-3--3--3--3|-5--5--5--5|--6--------|
6-----------|-1--1--1--1|-3--3--3--3|-----------|
choke(dont hold the note out)^
1-----------|-----------|-----------|-----------|
2-----------|-----------|-----------|-----------|
3-----------|-----------|-----------|-----------|
4-3--3--3--3|-----------|-----------|-8---8888--|
5-1--1--1--1|-3--3--3--3|-5--5--5--5|-6---6666--|
6-----------|-1--1--1--1|-3--3--3--3|-----------| Back to intro




Ваше мнение



Капча

Рекомендуем