Maybe it's Maybeline by Relient K
Standard Tuning

G:-------------------------------------
D:-------------------------------------
A:7-7-7-7-7-7-7-0-5-5-5-5-5-5-5-0-4-4-4
E:-------------------------------------

(Verse)
G:----------------
D:-------------5-- X4
A:-0-5-0-2-0-5---5
E:----------------

G:-------------------------------------
D:------------------------------------- X4
A:10-10-10-10-10-10-10-10-5--10-9-7-7-9
E:-------------------------------------

G:---------------------------------------
D:----------------------------5-5-5-5-5-5
A:5-5-5-5-5-5-5-5-0-0-0-0-0-0------------
E:---------------------------------------

G:------------------
D:------------------
A:-1-1-1-1-3-3-3-3-5
E:------------------

(Verse)
G:----------------
D:-------------5-- X4
A:-0-5-0-2-0-5---5
E:----------------

G:-------------------------------------
D:------------------------------------- X3
A:10-10-10-10-10-10-10-10-5--10-9-7-7-9
E:-------------------------------------

G:---------------------------------------
D:----------------------------5-5-5-5-5-5 X3
A:5-5-5-5-5-5-5-5-0-0-0-0-0-0------------
E:---------------------------------------

G:------------------
D:------------------
A:-1-1-1-1-3-3-3-3-5
E:------------------

G:---------------------------------------------------
D:--------------------------------------------------- X3
A:5-5-5-5-5-5-5-5-0-0-0-0-0-0-0-0-----------0-0-0-0-0
E:--------------------------------3-3-3-3-3----------

G:---------------------------------------
D:----------------------------5-5-5-5-5-5
A:5-5-5-5-5-5-5-5-0-0-0-0-0-0------------
E:---------------------------------------

G:------------------
D:------------------
A:-1-1-1-1-3-3-3-3-5
E:------------------

Thanks, please rate after you learn it.
Tabbed by:
_TheBassist01_




Ваше мнение



Капча

Рекомендуем