Verse:
G-----------------10-8-------------8-6------------7-5--9-7-----
D---------------10----------------8--------------7--------9-8--
A-10-10-10-10-10---------8-8-8-8-8------7-7-7-7-7-----6------9-
E-------------------------------------------------------------- x4

Pre-Chorus:
G---------------------------
D---------------------------
A-333-33-33333-333-33-33333-
E---------------------------

G-------------------------
D-------------------------
A-555-55-333-33-555-55-3*-
E-------------------------

Chorus:
G---------------------------------
D---------------------------------
A-3-3-3-3-2-2-2-2-0-0-0-0-2-2-2-2-
E---------------------------------x2




Ваше мнение



Капча

Рекомендуем