Forward Motion by Relient K
Standard Tuning

(Intro)
G:-------------------|
D:------1--------1---|
A:1--------1---------|
E:---4--------4-----2|

G:----------------------|
D:----------------------| x2
A:4(8)--------1(8)------|
E:------4(8)--------2(8)|

G:----------|
D:----------| x2
A:4---------|
E:---4--6--2|

G:-------------------|
D:------1--------1---|
A:1--------1---------|
E:---4--------4-----2|

G-----------|
D:----------| x2
A:4--3--1--1|
E:----------|

G:----------| |-----------------------|
D:----------| x4 |-----------------------|
A:4-----1---| |-----------------------|
E:---4-----2| |2-2--2-2--2-2--2-2--2-4|

G:----------------------|
D:----------------------| x2
A:4(8)--------1(8)------|
E:------4(8)--------2(8)|

G:----------|
D:----------| x2
A:4---------|
E:---4--6--2|

G:-------------------|
D:------1--------1---|
A:1--------1---------|
E:---4--------4-----2|

G-----------|
D:----------| x2
A:4--3--1--1|
E:----------|

G:----------| |-----------------------|
D:----------| x4 |-----------------------|
A:4-----1---| |-----------------------|
E:---4-----2| |2-2--2-2--2-2--2-2--2-4|

G:----------|
D:----------| x4
A:4---------|
E:---4--6--2|

G:-----------------------|
D:-----------------------|
A:-----------------------|
E:2-2--2-2--2-2--2-2--2-4|

(Outro)
G:--------------------------|
D:--------------------------|
A:-------------------------4|
E:2-2--2-2--2-2--2-2--2-4---|

Thanks, please rate after you learn it.
Tabbed by:
_TheBassist01_




Ваше мнение



Капча

Рекомендуем