song Tropical London
band rancid
taby eaiddhi ([email protected])
tuning standard

If you have any corrections or comments mail me.


|--------3--3--6------------|
|--------3--4--6------------|
|--------3--5--7--8888875---|
|--------5--5--8---------8--| x 2
|--------5--3--8------------|
|-6-5-3--3-----6------------|

|---------------------------------------|
|---------------------------------------|
|-------------------88888888------------|
|-88888888-55555555-88888888-88888888---| x 2
|-88888888-55555555-66666666-88888888---|
|-66666666-33333333----------66666666---|
pm........ ........ ........ ........
Riff A
|--------------|
|--------------|
|--------8-----|
|--5--5--8-----| x3
|--5--5--6-----|
|--3--3--------|
Riff B
|----------------------|
|----------------------|
|--33333333------------|
|--33333333-33333333---|
|--11111111-33333333---|
|-----------11111111---|
........ ........
+

[ + ] x2


|--------3--3--6------------|
|--------3--4--6------------|
|--------3--5--7--8888875---|
|--------5--5--8---------8--| x 2
|--------5--3--8------------|
|-6-5-3--3-----6------------|

|-----------------------------------------------------------|
|-----------------------------------------------------------|
|-----------------------------------------------------------|
|-----------------8888-55-------8888-55---------------------|
|-------5-8888-88---------8888----------8888-55-------------|
|-6666-8----------------------------------------888886656---|

|------------------------------|
|------------------------------|
|----5--8----------5--8--------|
|-5--5--8--8-8--5--5--8--8-3---|
|-5--3--6--8-8--5--3--6--8-3---|
|-3--------6-5--3--------6-1---|

|---------------------------------|
|---------------------------------|
|---------------------------------|
|---------------------------------|
|-/5555-5333-3111---1-3-5--3-1--|
|-------------------3-------------|

|-1-3131-----------------|
|-3-3333-1-3-------------|
|-0-0000-----0-3-33-0-3--|
|------------------------|
|------------------------|
|------------------------|

x2

|-------------------|
|-------------------|
|-8-88888-----------|
|-8-88888-8-88888---| x 4
|-6-66666-8-88888---|
|---------6-66666---|
..... .....
|-------------------|
|-------------------|
|-8888888-----------|
|-8888888-8888888---| x 3
|-6666666-8888888---|
|---------6666666---|

|----------------|
|----------------|
|-8888888--------|
|-8888888-8888---|
|-6666666-8888---|
|---------6666---|

Fine.




Ваше мнение



Капча