Rancid
Time Bomb
...And Out Come The Wolves...
Tabbed by Daniel Miller
Epitaph
This is how it is played.
Intro
e--2-2-2---------2-2-2--7-7-7------|
B--3-3-3---------3-3-3--7-7-7------|
G--4-4-4--1-1-1--4-4-4--9-9-9------|
D--4-4-4--2-2-2--4-4-4--9-9-9------|
A--2-2-2--2-2-2--2-2-2--7-7-7------|
E----------------------------------|
Verse 8 x's
e--2-x-2-x--4-x-4-x-|
B--3-x-3-x--5-x-5-x-|
G--4-x-4-x--4-x-4-x-|
D--4-x-4-x----------|
A-------------------|
E-------------------|
Chorus 2x's
e--5-x-5-x----------------------------|
B--5-x-5-x--7-x-7-x--9-x-9-x--7-x-7-x-|
G--6-x-6-x--7-x-7-x--9-x-9-x--7-x-7-x-|
D--7-x-7-x--7-x-7-x--9-x-9-x--7-x-7-x-|
A-------------------------------------|
E-------------------------------------|

Verse 8 x's
Chorus 2 x's
Verse 8 x's
Bridge
e--------------------------|
B--------------------------|
G--1-1-1-1-1-1-1-1-1-1-1-1-|
D--2-2-2-2-2-2-2-2-2-2-2-2-|
A--2-2-2-2-2-2-2-2-2-2-2-2-|
E--------------------------|
Solo
e------------------------------------------------------------------|
B----------33333-2---------33333-2---------33333-2-3-2-3-2-3-2-3-5-|
G--4--2-4----------4--2-4-----------4--2-4-------------------------|
D------------------------------------------------------------------|
A------------------------------------------------------------------|
E------------------------------------------------------------------|

Verse 8 x's
Chorus 8 x's
Outro:
e|--------------------------------------------|
B|--------------------------------------------|
G|--------------------1-1-1-1-1-1-1--2--2--2--|
D|--2-2-2-2-2-2-2-2-2-2-2-2-2-2-2-2--2--2--2--|
A|--2-2-2-2-2-2-2-2-2-2-2-2-2-2-2-2--0--0--0--|
E|--0-0-0-0-0-0-0-0-0-0-0-0-0-0-0-0-----------|




Ваше мнение



Капча