Song: The Wolf
Band: Rancid
Album: Life Won't Wait
tabbed by: Keith Mattson

Verse (repeat first part)
G:------------------------------------------------|---------
D:---------------00-11-33-------------------------|---------
A:---00-11-33-11----------33-11-00----33-11-00----|-1>--0>--
E:11-------------------------------33----------33-|---------

G:----------------------------------------------------------
D:0-2-3-5-5-5-5-5-5-33-22-00--------------------------------
A:----------------------------------------------------------
E:----------------------------------------------------------

Chorus (repeat)
G:----------------------------------------------------------
D:---------------------------------------------------00-11--
A:33-11-00----33-11-00-------00-11-33----00-11-33-11--------
E:---------33----------33-11----------11--------------------
G:----------------------------------------------------------
D:22-33-22-11-00--------------------------------------------
A:---------------33-11-00----33-11-00-----------------------
E:------------------------33----------33--------------------
For the bridge, don't repeat the first part of the verse,
just play the first two parts all the way through.
[email protected]




Ваше мнение



Капча